tablaturas, partituras y acordes para guitarra
Busca por banda/artista:
 
y/o título de la canción:
A B C D E F G H I J K L M N O P Q R S T U V W X Y Z 0 1 2 3 4 5 6 7 8 9 / Top 100 tabs
Categorías
Usuarios
usuario:
Darse de alta
password:
Artistas más visitados
Publicidad
TOP acordes y tablaturas de Megadeth


Estás en: Inicio > Letra M > Acordes y tablaturas de Megadeth > Chosen ones
Chosen ones
de Megadeth
Puntúa este acorde/tab:      
(0.5/5)
Reportar este acorde/tab
  Añadir a tus favoritos
  Imprimir
Guitarra I
                                                          
E||---------------------------|--------------------------|
B||---------------------------|--------------------------|
G||*--5-----------------------|--5-----------------------|
D||*-----------7-----5--------|-----------7-----5--------|
A||------0--0-----0-----6h-7--|-----0--0-----0-----6h-7--|
E||---------------------------|--------------------------|


                                                      
--------------------------|--------------------------|
--------------------------|--------------------------|
--5-----------------------|--7--6--5-----------------|
-----------7-----5--------|-----------7--6--5--------|
-----0--0-----0-----6h-7--|--------------------7--6--|
--------------------------|--------------------------|


                                                      
--------------------------|--------------------------|
--------------------------|--------------------------|
--5-----------------------|--5-----------------------|
-----------7-----5--------|-----------7-----5--------|
-----0--0-----0-----6h-7--|-----0--0-----0-----6h-7--|
--------------------------|--------------------------|


                                                      
--------------------------|--------------------------|
--------------------------|--------------------------|
--5-----------------------|--7--6--5-----------------|
-----------7-----5--------|-----------7--6--5--------|
-----0--0-----0-----6h-7--|--------------------7--6--|
--------------------------|--------------------------|


                                                        
|---------------------------|--------------------------|
|---------------------------|--------------------------|
|*--5-----------------------|--5-----------------------|
|*-----------7-----5--------|-----------7-----5--------|
|------0--0-----0-----6h-7--|-----0--0-----0-----6h-7--|
|---------------------------|--------------------------|


                                                        
--------------------------|---------------------------||
--------------------------|---------------------------||
--5-----------------------|--7--6--5-----------------*||
-----------7-----5--------|-----------7--6--5--------*||
-----0--0-----0-----6h-7--|--------------------7--6---||
--------------------------|---------------------------||


                                                                 
--------------------------|-------------------------------------|
--------------------------|-------------------------------------|
--7--6--5-----------------|--(b9)---------------7-----------------|
-----------7--6--5--------|--(b9)---------------7--------8--------|
--------------------7--6--|--7----------------5--------8--------|
--------------------------|----------------------------6--------|


                                                      
--------------------------|--------------------------|
--------------------------|--------------------------|
--5-----------------------|--5-----------------------|
-----------7-----5--------|-----------7-----5--------|
-----0--0-----0-----6h-7--|-----0--0-----0-----6h-7--|
--------------------------|--------------------------|


                                                                 
-------------------------------------|--------------------------|
-------------------------------------|--------------------------|
--(b9)---------------7-----------------|--5-----------------------|
--(b9)---------------7--------8--------|-----------7-----5--------|
--7----------------5--------8--------|-----0--0-----0-----6h-7--|
----------------------------6--------|--------------------------|


                                                        
--------------------------||---------------------------|
--------------------------||---------------------------|
--7--6--5-----------------||*--5-----------------------|
-----------7--6--5--------||*-----------7-----5--------|
--------------------7--6--||------0--0-----0-----6h-7--|
--------------------------||---------------------------|


                                                      
--------------------------|--------------------------|
--------------------------|--------------------------|
--5-----------------------|--5-----------------------|
-----------7-----5--------|-----------7-----5--------|
-----0--0-----0-----6h-7--|-----0--0-----0-----6h-7--|
--------------------------|--------------------------|


                                                        
---------------------------||--------------------------|
---------------------------||--------------------------|
--7--6--5-----------------*||--7--6--5-----------------|
-----------7--6--5--------*||-----------7--6--5--------|
--------------------7--6---||--------------------7--6--|
---------------------------||--------------------------|


                                                                 
-------------------------------------|--------------------------|
-------------------------------------|--------------------------|
--(b9)---------------7-----------------|--5-----------------------|
--(b9)---------------7--------8--------|-----------7-----5--------|
--7----------------5--------8--------|-----0--0-----0-----6h-7--|
----------------------------6--------|--------------------------|


                                                                 
--------------------------|-------------------------------------|
--------------------------|-------------------------------------|
--5-----------------------|--(b9)---------------7-----------------|
-----------7-----5--------|--(b9)---------------7--------8--------|
-----0--0-----0-----6h-7--|--7----------------5--------8--------|
--------------------------|----------------------------6--------|


                                                                          
--------------------------|--------------------------|-------------------|
--------------------------|--------------------------|-------------------|
--5-----------------------|--7--6--5-----------------|-------------------|
-----------7-----5--------|-----------7--6--5--------|--2----------------|
-----0--0-----0-----6h-7--|--------------------7--6--|--0----------------|
--------------------------|--------------------------|-------------------|


                                                                
|----------------------|-------------------|-------------------|
|----------------------|-------------------|-------------------|
|*---------------------|-------------------|-------------------|
|*--2------------10/---|--------------9/---|--------------8/---|
|---0------------10/---|--------------9/---|--------------8/---|
|----------------8/----|--------------7/---|--------------6/---|


                       3x                                                     
-----------------------||--------------------------|-------------------------|
-----------------------||--------------------------|-------------------------|
----------2--0--------*||*-------------------------|-------------------------|
----------------2--0--*||*--2---------2-------5----|--2---------2-------4----|
-----------------------||---0--0-0-0--0----0--3----|--0--0-0-0--0----0--2----|
-----------------------||--------------------------|-------------------------|


                                                        
-------------------------|----------------------------||
-------------------------|----------------------------||
-------------------------|---------------2--0--------*||
--2---------2-------3----|--2------------------2--0--*||
--0--0-0-0--0----0--1----|--0--0-0-0--0---------------||
-------------------------|----------------------------||


                                                                       
-----------------------------------|----------------------------------|
-----------------------------------|----------------------------------|
*----------------------------------|----------------------------------|
*----------------------------------|----------------------------------|
---2-2-2-2-0-0-2-2-3-3-3-3-5-5-3-3-|--2-2-2-2-0-0-2-2-3-3-3-3-5-5-3-3-|
-----------------------------------|----------------------------------|


                                                                      
----------------------||----------------------||---------------------|
----------------------||----------------------||---------------------|
---------------------*||---------------------*||---------------------|
--4----4--4----------*||--4----4--4----------*||--4----4--4----------|
--2----2--2-----------||--2----2--2-----------||--2----2--2----------|
----------------------||----------------------||---------------------|


                                     6x                       
|------------------------------------||----------------------|
|------------------------------------||----------------------|
|*----------------------------------*||*---------------------|
|*--------------------------3-3-----*||*--7----7--7----------|
|---5-5-5-5-3-3-5-5-6-6-6-6-----6-6--||---5----5--5----------|
|------------------------------------||----------------------|


                                                                                
|--------------------------|-------------------------|-------------------------|
|--------------------------|-------------------------|-------------------------|
|*-------------------------|-------------------------|-------------------------|
|*--2---------2-------5----|--2---------2-------4----|--2---------2-------3----|
|---0--0-0-0--0----0--3----|--0--0-0-0--0----0--2----|--0--0-0-0--0----0--1----|
|--------------------------|-------------------------|-------------------------|


                                                         
----------------------------||--------------------------|
----------------------------||--------------------------|
---------------2--0--------*||*-------------------------|
---------------------2--0--*||*------------2-------5----|
--0--0-0-0--0---------------||---0--0-0-0--0----0--3----|
----------------------------||--------------------------|


                                                                                
-------------------------|-------------------------|---------------------------|
-------------------------|-------------------------|---------------------------|
-------------------------|-------------------------|---------------2--0--------|
------------2-------4----|------------2-------3----|---------------------2--0--|
--0--0-0-0--0----0--2----|--0--0-0-0--0----0--1----|--0--0-0-0--0--------------|
-------------------------|-------------------------|---------------------------|


                                                                        
-------------------------|--------------------------|------------------|
-------------------------|--------------------------|------------------|
-------------------------|--------------------10----|------------------|
------------2-------5----|------------2-------10----|------------------|
--0--0-0-0--0----0--3----|--0--0-0-0--0----0--8-----|------------------|
-------------------------|--------------------------|------------------|


                                                                               
-------------------|------------------|-------------------|-------------------|
-------------------|------------------|-------------------|-------------------|
----------(b9)-------|------------------|--8----------------|----------5--------|
----------(b9)-------|------------------|--8----------------|----------5--------|
----------7--------|------------------|--6----------------|----------3--------|
-------------------|------------------|-------------------|-------------------|


                                                                       
------------------|-------------------------|-------------------------|
------------------|-------------------------|-------------------------|
------------------|----------4--2-----------|----------5--3-----------|
------------------|----------------4--3--2--|----------------5--4--3--|
------------------|--2----2-----------------|--3----3-----------------|
------------------|-------------------------|-------------------------|


                                                                              
-------------------------|-------------------------|-------------------------|
-------------------------|-------------------------|-------------------------|
----------6--4-----------|----------7--5-----------|----------8--6-----------|
----------------6--5--4--|----------------7--6--5--|----------------8--7--6--|
--4----4-----------------|--5----5-----------------|--6----6-----------------|
-------------------------|-------------------------|-------------------------|


                                                                   
-------------------------|--------------------|-------------------|
-------------------------|--------------------|-------------------|
----------(b9)-7-----------|--(b9)-------(b9)-------|--9/---------------|
----------------(b9)-8--7--|--(b9)-------(b9)-------|--9/---------------|
--7----7-----------------|--7--------7--------|--7/---------------|
-------------------------|--------------------|-------------------|


                                                                            
------------------|------------------|------------------|------------------|
------------------|------------------|------------------|------------------|
------------------|------------------|------------------|------------------|
------------------|------------------|------------------|------------------|
------------------|------------------|------------------|------------------|
------------------|------------------|------------------|------------------|


                                                                            
------------------|------------------|-------------------------------------|
------------------|------------------|-------------------------------------|
------------------|------------------|--(b9)---------------7-----------------|
------------------|------------------|--(b9)---------------7--------8--------|
------------------|------------------|--7----------------5--------8--------|
------------------|------------------|----------------------------6--------|


                                                      
--------------------------|--------------------------|
--------------------------|--------------------------|
--5-----------------------|--5-----------------------|
-----------7-----5--------|-----------7-----5--------|
-----0--0-----0-----6h-7--|-----0--0-----0-----6h-7--|
--------------------------|--------------------------|


                                                                 
-------------------------------------|--------------------------|
-------------------------------------|--------------------------|
--(b9)---------------7-----------------|--5-----------------------|
--(b9)---------------7--------8--------|-----------7-----5--------|
--7----------------5--------8--------|-----0--0-----0-----6h-7--|
----------------------------6--------|--------------------------|


                                                                 
--------------------------|-------------------------------------|
--------------------------|-------------------------------------|
--5-----------------------|--(b9)---------------7-----------------|
-----------7-----5--------|--(b9)---------------7--------8--------|
-----0--0-----0-----6h-7--|--7----------------5--------8--------|
--------------------------|----------------------------6--------|


                                                      
--------------------------|--------------------------|
--------------------------|--------------------------|
--5-----------------------|--5-----------------------|
-----------7-----5--------|-----------7-----5--------|
-----0--0-----0-----6h-7--|-----0--0-----0-----6h-7--|
--------------------------|--------------------------|


                                                                 
-------------------------------------|--------------------------|
-------------------------------------|--------------------------|
--(b9)---------------7-----------------|--5-----------------------|
--(b9)---------------7--------8--------|-----------7-----5--------|
--7----------------5--------8--------|-----0--0-----0-----6h-7--|
----------------------------6--------|--------------------------|


                                                                              
--------------------------|-----------------------|--------------------------|
--------------------------|-----------------------|--------------------------|
--7--6--5-----------------|-----------------------|--------------------------|
-----------7--6--5--------|--2--------------------|--2--2--2--2--2--2--2--2--|
--------------------7--6--|--0--------------------|--0--0--0--0--0--0--0--0--|
--------------------------|-----------------------|--------------------------|


                                                                  
--------------------------|-------------------|------------------|
--------------------------|-------------------|------------------|
--------------------------|-------------------|------------------|
--2--2--2--2--2--2--2--2--|--2----------------|------------------|
--0--0--0--0--0--0--0--0--|--0----------------|------------------|
--------------------------|-------------------|------------------|


                                                            
------------------|-------------------|-------------------||
------------------|-------------------|-------------------||
------------------|-------------------|-------------------||
------------------|--2----------------|----------2--------||
------------------|--0----------------|----------0--------||
------------------|-------------------|-------------------||		   
AcordesyTabs.com © 2008 Acordes y Tablaturas para guitarra. Tabs and Chords for guitar. Aviso Legal - Contacto
El uso de este sitio está sujeto a la aceptación de los términos y condiciones (28 usuarios online)