tablaturas, partituras y acordes para guitarra
Busca por banda/artista:
 
y/o título de la canción:
A B C D E F G H I J K L M N O P Q R S T U V W X Y Z 0 1 2 3 4 5 6 7 8 9 / Top 100 tabs
Categorías
Usuarios
usuario:
Darse de alta
password:
Artistas más visitados
Publicidad
TOP acordes y tablaturas de Evanescence


Lithium
de Evanescence
Puntúa este acorde/tab:      
(0.4/5)
Reportar este acorde/tab
  Añadir a tus favoritos
  Imprimir
Intro piano

G|---------|
D|---------|
A|-1-~-1-1-|2x
E|---------|
Verso
G|---------|---------|---------|---------|
D|---------|---------|---------|---------|
A|-1-1-1-1-|---------|---------|-1-1-1-1-|
E|---------|-2-2-2-2-|-2-2-4-4-|---------|

G|---------|---------|---------|---------|
D|---------|---------|---------|---------|
A|-1-1-1-1-|---------|-----6-6-|---------|
E|---------|-2-2-2-2-|-2-2-----|-1-1-1-1-|

Pré refrão
G|---------|---------|
D|---------|---------|
A|-1-1-----|-1-1-6-6-|
E|-----2-2-|---------|

Refrão 
G|---------|---------|
D|---------|---------|
A|---------|-6-6-6-6-|4x
E|-6-6-4-4-|---------|
Pausa
Verso2
G|---------|---------|
D|---------|---------|
A|---------|-1-1-1-1-|
E|-2-2-4-4-|---------|

G|---------|---------|---------|---------|
D|---------|---------|---------|---------|
A|---------|---------|-1-1-1-1-|-1-1-1-1-|2x
E|-2-2-2-2-|-1-1-1-1-|---------|---------|

G|---------|---------|--------|
D|---------|---------|--------|
A|---------|-1-1-1-1-|1-1-1-1-|
E|-2-2-4-4-|---------|--------|
Verso3
G|---------|---------|---------|-------|---------|
D|---------|---------|---------|-------|---------|
A|-1-1-1-1-|---------|---------|----1-1|-1-1-1-1-|
E|---------|-2-2-2-2-|-2-2-4-4-|-1-1---|---------|

G|---------|---------|---------|-----|
D|---------|---------|---------|-----|
A|-1-1-1-1-|---------|-----6-6-|-----|
E|---------|-2-2-2-2-|-2-2-----|-1-1-|
Pré refrão
G|---------|---------|
D|---------|---------|
A|-1-1-----|-1-1-6-6-|
E|-----2-2-|---------|
Refrão 
G|---------|---------|
D|---------|---------|
A|---------|-6-6-6-6-|4x
E|-6-6-4-4-|---------|		   
AcordesyTabs.com © 2008 Acordes y Tablaturas para guitarra. Tabs and Chords for guitar. Aviso Legal - Contacto
El uso de este sitio está sujeto a la aceptación de los términos y condiciones (39 usuarios online)