tablaturas, partituras y acordes para guitarra
Busca por banda/artista:
 
y/o título de la canción:
A B C D E F G H I J K L M N O P Q R S T U V W X Y Z 0 1 2 3 4 5 6 7 8 9 / Top 100 tabs
Categorías
Usuarios
usuario:
Darse de alta
password:
Artistas más visitados
Publicidad
TOP acordes y tablaturas de Megadeth


Estás en: Inicio > Letra M > Acordes y tablaturas de Megadeth > Captive honour
Captive honour
de Megadeth
Puntúa este acorde/tab:      
(0.3/5)
Reportar este acorde/tab
  Añadir a tus favoritos
  Imprimir
Guitarra I
                                                                           3x
E||-----------0--------------0---------|-----------------------------------||
B||----------------0-------0---0---0-0-|--0-------0------------------------||
G||*--------0----0-------0-------0-----|--------0---0---0-------0-------0-*||
D||*------2----------------------------|------7-------7-------2-------0---*||
A||-----2--------------2---------------|----7---------------3-------0------||
E||---0--------------3-----------------|--5---------------3-------2--------||


                                                                         
-----------0-----------------------|----------0------------------------||
-------------0---0-----------------|------------0---0------------------||
*--------0-----0---------0-------0-|--------0-----0---------0-------0-*||
*------2---------------2-------0---|------2---------------2-------0---*||
-----2---------------2-------0-----|----2---------------2-------0------||
---0---------------3-------2-------|--0---------------3-------2--------||


                                                                      
----------0-----------------------|----------0-----------------------|
------------0---0-----------------|------------0---0-----------------|
--------0-----0---------0-------0-|--------0-----0---------0-------0-|
------2---------------0-------4---|------2---------------2-------0---|
----2---------------3-------5-----|----2---------------2-------0-----|
--0---------------3-------5-------|--0---------------3-------2-------|


                                                                      
----------0-----------------------|----------0-----------------------|
------------0---0-----------------|------------0---0-----------------|
--------3-----3---------0-------0-|--------0-----0---------0-------0-|
------4---------------0-------4---|------2---------------2-------0---|
----4---------------3-------5-----|----2---------------2-------0-----|
--2---------------3-------5-------|--0---------------3-------2-------|


                                                                
--------------------|---------------------|--------------------|
--------------------|---------------------|--------------------|
--------------------|-----------5---------|--------------------|
--4--------3--------|--2--------5----5----|--4--------3--------|
--4--------3--------|--2--------3----5----|--4--------3--------|
--2--------1--------|--0-------------3----|--2--------1--------|


                                                                 
---------------------|--------------------|---------------------|
---------------------|--------------------|---------------------|
-----------5---------|--------------------|-----------5---------|
--2--------5----5----|--4--------3--------|--2--------5----5----|
--2--------3----5----|--4--------3--------|--2--------3----5----|
--0-------------3----|--2--------1--------|--0-------------3----|


                                                                                
--------------------|---------------------------||-----------------------------|
--------------------|---------------------------||-----------------------------|
--------------------|---------------------------||*----------------------------|
--4--------3--------|--2------------------------||*--4--x-x-x--4--3--x-x-x--3--|
--4--------3--------|--2--------3-2-0---2---0-2-||---4--x-x-x--4--3--x-x-x--3--|
--2--------1--------|--0--------------2---2-----||---2--x-x-x--2--1--x-x-x--1--|


                                3x                           
--------------------------------||--------------------------|
--------------------------------||--------------------------|
-------------------------------*||--------------------------|
--2--x-x-x--2--4-5-----4-5-x-x-*||--4-----------------------|
--2--x-x-x--2--2-3-----4-5-x-x--||--4-----------------------|
--0--x-x-x--0------0-0-2-3-x-x--||--2--2--2--2--2--2--2--2--|


                                                      
--------------------------|--------------------------|
--------------------------|--------------------------|
--------------------------|--------------------------|
--------------------------|--4-----------------------|
--------------------------|--4-----------------------|
--2--2--2--2--2--2--2--2--|--2--2--2--2--2--2--2--2--|


                                                                  
------------------------------|----------------------------------|
------------------------------|----------------------------------|
------------------------------|----------------------------------|
------------------------------|-------------4------------4-4-----|
--------------3-2-0---2---0-2-|--4--0-2-2/4---4-0-3--3-3-----3-0-|
--2--2--2--2--------2---2-----|--2-------------------------------|


                                                                     
---------------------------------|----------------------------------|
---------------------------------|----------------------------------|
---------------------------------|----------------------------------|
---------4-4---------2-------4---|-------------4------------4-4-----|
--2--2-2-----2-----4-------6---5-|--4--0-2-2/4---4-0-3--3-3-----3-0-|
---------------4-5-----5/7-----3-|--2-------------------------------|


                                                                   
---------------------------------|--------------------------------|
---------------------------------|--------------------------------|
---------------------------------|--------------------------------|
---------4-4---------2-------4---|--4--------------3--------------|
--2--2-2-----2-----4-------6---5-|--4--------------3--------------|
---------------4-5-----5/7-----3-|--2--2-2-2-2-2-2-1--1-1-1-1-1-1-|


                                                                   
---------------------------------|--------------------------------|
---------------------------------|--------------------------------|
--4------------------------------|--------------------------------|
--4------------------------------|--4--------------3--------------|
--2--2-2-2-2-2-2-3-2-0---2---0-2-|--4--------------3--------------|
-----------------------2---2-----|--2--2-2-2-2-2-2-1--1-1-1-1-1-1-|


                                                                   
---------------------------------|--------------------------------|
---------------------------------|--------------------------------|
--4------------------------------|--------------------------------|
--4------------------------------|--4--------------3--------------|
--2--2-2-2-2-2-2-3-2-0---2---0-2-|--4--------------3--------------|
-----------------------2---2-----|--2--2-2-2-2-2-2-1--1-1-1-1-1-1-|


                                                                   
---------------------------------|--------------------------------|
---------------------------------|--------------------------------|
--4------------------------------|--------------------------------|
--4------------------------------|--4--------------3--------------|
--2--2-2-2-2-2-2-3-2-0---2---0-2-|--4--------------3--------------|
-----------------------2---2-----|--2--2-2-2-2-2-2-1--1-1-1-1-1-1-|


                                                                     
---------------------------------|----------------------------------|
---------------------------------|----------------------------------|
--4------------------------------|----------------------------------|
--4------------------------------|-------------4------------4-4-----|
--2--2-2-2-2-2-2-3-2-0---2---0-2-|--4--0-2-2/4---4-0-3--3-3-----3-0-|
-----------------------2---2-----|--2-------------------------------|


                                                                     
---------------------------------|----------------------------------|
---------------------------------|----------------------------------|
---------------------------------|----------------------------------|
---------4-4---------2-------4---|-------------4------------4-4-----|
--2--2-2-----2-----4-------6---5-|--4--0-2-2/4---4-0-3--3-3-----3-0-|
---------------4-5-----5/7-----3-|--2-------------------------------|


                                                                 
---------------------------------|------------------------------|
---------------------------------|------------------------------|
---------------------------------|--------------------------5-5-|
---------4-4---------2-------4---|---------2--------2---x-x-5-5-|
--2--2-2-----2-----4-------6---5-|--4--4-4-0--2-----0-0-x-x-3-3-|
---------------4-5-----5/7-----3-|--2---------0---0-------------|


                                                             
-----------------------------|------------------------------|
-----------------------------|------------------------------|
-----------------------------|--------------------------5-5-|
---------2---------5------5--|---------2--------2---x-x-5-5-|
--4--4-4-0--2--x-x-5--x-x-5--|--4--4-4-0--2-----0-0-x-x-3-3-|
--2---------0------3------3--|--2---------0---0-------------|


                                                             
-----------------------------|------------------------------|
-----------------------------|------------------------------|
-----------------------------|--------------------------5-5-|
---------2---------5------5--|---------2--------2---x-x-5-5-|
--4--4-4-0--2--x-x-5--x-x-5--|--4--4-4-0--2-----0-0-x-x-3-3-|
--2---------0------3------3--|--2---------0---0-------------|


                                                             
-----------------------------|------------------------------|
-----------------------------|------------------------------|
-----------------------------|--------------------------5-5-|
---------2---------5------5--|---------2--------2---x-x-5-5-|
--4--4-4-0--2--x-x-5--x-x-5--|--4--4-4-0--2-----0-0-x-x-3-3-|
--2---------0------3------3--|--2---------0---0-------------|


                                                               
-----------------------------|--------------------------------|
-----------------------------|--------------------------------|
-----------------------------|--------------------------------|
---------2---------5------5--|--4--------------3--------------|
--4--4-4-0--2--x-x-5--x-x-5--|--4--------------3--------------|
--2---------0------3------3--|--2--2-2-2-2-2-2-1--1-1-1-1-1-1-|


                                                                   
---------------------------------|--------------------------------|
---------------------------------|--------------------------------|
--4------------------------------|--------------------------------|
--4------------------------------|--4--------------3--------------|
--2--2-2-2-2-2-2-3-2-0---2---0-2-|--4--------------3--------------|
-----------------------2---2-----|--2--2-2-2-2-2-2-1--1-1-1-1-1-1-|


                                                                   
---------------------------------|--------------------------------|
---------------------------------|--------------------------------|
--4------------------------------|--------------------------------|
--4------------------------------|--4--------------3--------------|
--2--2-2-2-2-2-2-3-2-0---2---0-2-|--4--------------3--------------|
-----------------------2---2-----|--2--2-2-2-2-2-2-1--1-1-1-1-1-1-|


                                                                   
---------------------------------|--------------------------------|
---------------------------------|--------------------------------|
--4------------------------------|--------------------------------|
--4------------------------------|--4--------------3--------------|
--2--2-2-2-2-2-2-3-2-0---2---0-2-|--4--------------3--------------|
-----------------------2---2-----|--2--2-2-2-2-2-2-1--1-1-1-1-1-1-|


                                                                     
---------------------------------|----------------------------------|
---------------------------------|----------------------------------|
--4------------------------------|----------------------------------|
--4------------------------------|-------------4------------4-4-----|
--2--2-2-2-2-2-2-3-2-0---2---0-2-|--4--0-2-2/4---4-0-3--3-3-----3-0-|
-----------------------2---2-----|--2-------------------------------|


                                                                     
---------------------------------|----------------------------------|
---------------------------------|----------------------------------|
---------------------------------|----------------------------------|
---------4-4---------2-------4---|-------------4------------4-4-----|
--2--2-2-----2-----4-------6---5-|--4--0-2-2/4---4-0-3--3-3-----3-0-|
---------------4-5-----5/7-----3-|--2-------------------------------|


                                                                 
---------------------------------|------------------------------|
---------------------------------|------------------------------|
---------------------------------|--------------------------5-5-|
---------4-4---------2-------4---|---------2--------2---x-x-5-5-|
--2--2-2-----2-----4-------6---5-|--4--4-4-0--2-----0-0-x-x-3-3-|
---------------4-5-----5/7-----3-|--2---------0---0-------------|


                                                             
-----------------------------|------------------------------|
-----------------------------|------------------------------|
-----------------------------|--------------------------5-5-|
---------2---------5------5--|---------2--------2---x-x-5-5-|
--4--4-4-0--2--x-x-5--x-x-5--|--4--4-4-0--2-----0-0-x-x-3-3-|
--2---------0------3------3--|--2---------0---0-------------|


                                                             
-----------------------------|------------------------------|
-----------------------------|------------------------------|
-----------------------------|--------------------------5-5-|
---------2---------5------5--|---------2--------2---x-x-5-5-|
--4--4-4-0--2--x-x-5--x-x-5--|--4--4-4-0--2-----0-0-x-x-3-3-|
--2---------0------3------3--|--2---------0---0-------------|


                                                             
-----------------------------|------------------------------|
-----------------------------|------------------------------|
-----------------------------|--------------------------5-5-|
---------2---------5------5--|---------2--------2---x-x-5-5-|
--4--4-4-0--2--x-x-5--x-x-5--|--4--4-4-0--2-----0-0-x-x-3-3-|
--2---------0------3------3--|--2---------0---0-------------|


                                
-------------------------------|
----------------------------17b|
-------------------------------|
---------2---------5------5----|
--4--4-4-0--2--x-x-5--x-x-5----|
--2---------0------3------3----|


                                                 
------14----------------------14----------------|
---------17-14----14-14-16~------17-14----14-14-|
---------------16b---------------------16b------|
------------------------------------------------|
------------------------------------------------|
------------------------------------------------|


                                                                  
--------14----------------15-15-12----------12-15-10-------------|
--16b------17-14----14-14----------13----13----------11----11----|
-----------------16b------------------12----------------12----12-|
-----------------------------------------------------------------|
-----------------------------------------------------------------|
-----------------------------------------------------------------|


                                                      
------13b-----13-14-13-------------------------------|
-----------------------17-16-15-14----14-15-14----14-|
--11-------------------------------17----------17----|
-----------------------------------------------------|
-----------------------------------------------------|
-----------------------------------------------------|


                                                                              
--1(b9)18-17-16-15-------1(b9)---1(b9)------------14----------------------------17b|
-----------------1(b9)17----17----17-14-15-14----14----14----14-17-14-17-14----|
--------------------------------------------------16----16b------------------|
-----------------------------------------------------------------------------|
-----------------------------------------------------------------------------|
-----------------------------------------------------------------------------|


                                     
------17r17-17----14-17--17-17------|
---------------17----17b----17b--14-|
------------------------------------|
------------------------------------|
------------------------------------|
------------------------------------|


                                             
--17r--14-----------------------------------|
--17r-----17-14-------------16--------14----|
----------------16-14----------14~----14-10-|
----------------------16-14-----------------|
--------------------------------------------|
--------------------------------------------|


                                          
--x-19b--19b-1(b9)17-----------------14----|
--x----------------1(b9)----12-13-14----14-|
-----------------------14----------------|
-----------------------------------------|
-----------------------------------------|
-----------------------------------------|


                                                                               
------14----14-16-17-16-14-16----14-------------------------------------------|
--17b----17-------------------17----15-17-15-14-15----14----------------------|
---------------------------------------------------16----16-14----------------|
---------------------------------------------------------------16-14----------|
---------------------------------------------------------------------15-14----|
---------------------------------------------------------------------------17-|


                                                              
---------------------------|---------------------------------|
---------------------------|---------------------------------|
---------------------------|---------------------------------|
-------------------4-4-----|---------4-4---------2-------4-6-|
------------3--3-3-----3-0-|--2--2-2-----2-----4-------6---4-|
--14~----------------------|---------------4-5-----5/7-------|


                                                 
---------------------------|-------------------||
---------------------------|-------------------||
---------------------------|-------------------||
--4------------------------|--4----------------||
--4--------3-2-0---2---0-2-|--4----------------||
--2--------------2---2-----|--2----------------||		   
AcordesyTabs.com © 2008 Acordes y Tablaturas para guitarra. Tabs and Chords for guitar. Aviso Legal - Contacto
El uso de este sitio está sujeto a la aceptación de los términos y condiciones (17 usuarios online)