tablaturas, partituras y acordes para guitarra
Busca por banda/artista:
 
y/o título de la canción:
A B C D E F G H I J K L M N O P Q R S T U V W X Y Z 0 1 2 3 4 5 6 7 8 9 / Top 100 tabs
Categorías
Usuarios
usuario:
Darse de alta
password:
Artistas más visitados
Publicidad
TOP acordes y tablaturas de Megadeth


Crush 'em
de Megadeth
Puntúa este acorde/tab:      
(0.4/5)
Reportar este acorde/tab
  Añadir a tus favoritos
  Imprimir
Guitar 1
                                                                    
E||----------------------|
B||------16b-----16b-----|
G||------13b-----13b-----|
D||----------------------|
A||----------------------|
E||----------------------|


                                                                    
------------------------------|------|------|----------------------|
------------------------------|------|------|------16b-----16b-----|
----------13--x-x-15--13------|------|------|------13b-----13b-----|
----------13--x-x-15--13------|------|------|----------------------|
----13-15---------------------|------|------|----------------------|
------------------------------|------|------|----------------------|


                                                                      
------------------------------|------|------|------------------------|
------------------------------|------|------|------16----16----16----|
----------13--x-x-15--13------|------|------|------15b---15b---15b---|
----------13--x-x-15--13------|------|------|------------------------|
----13-15---------------------|------|------|------------------------|
------------------------------|------|------|------------------------|


                                                          
----------------------------|----------------------------|
--16------------------------|----------------------------|
--15b-------------20--17~---|------------4------------4--|
----------x-x-x-x-18--15~---|--6--6------4--6--6------4--|
----------------------------|--------4-6----------4-6----|
----------------------------|----------------------------|


                                                          
----------------------------|----------------------------|
----------------------------|----------------------------|
------------4------------4--|------------4------------4--|
--6--6------4--6--6------4--|--6--6------4--6--6------4--|
--------4-6----------4-6----|--------4-6----------4-6----|
----------------------------|----------------------------|


                                                          
----------------------------|----------------------------|
----------------------------|----------------------------|
------------4------------4--|------------7------------7--|
--6--6------4--6--6------4--|--(b9)-(b9)-----7--(b9)-(b9)-----7--|
--------4-6----------4-6----|--------7-(b9)---------7-(b9)---|
----------------------------|----------------------------|


                                                          
----------------------------|----------------------------|
----------------------------|----------------------------|
------------7------------7--|------------7------------7--|
--(b9)-(b9)-----7--(b9)-(b9)-----7--|--(b9)-(b9)-----7--(b9)-(b9)-----7--|
--------7-(b9)---------7-(b9)---|--------7-(b9)---------7-(b9)---|
----------------------------|----------------------------|


                                                                     
----------------------------|-------------------|-------------------|
----------------------------|-------------------|-------------------|
------------7------------7--|-------------------|--2----------------|
--(b9)-(b9)-----7--(b9)-(b9)-----7--|--4----------------|--2----------------|
--------7-(b9)---------7-(b9)---|--4----------------|--0----------------|
----------------------------|--2----------------|-------------------|


                                                                                
-------------------|-------------------|-------------------|-------------------|
-------------------|-------------------|-------------------|-------------------|
-------------------|--4----------------|--7----------------|-------------------|
--4----------------|--4----------------|--7----------------|--2----------------|
--4----------------|--2----------------|--5----------------|--2----------------|
--2----------------|-------------------|-------------------|--0----------------|


                                                              
---------------------|-------------------|-------------------|
---------------------|-------------------|-------------------|
---------------------|--4----------------|-------------------|
--4------------------|--4----------------|--3----------------|
--4------------------|--2----------------|--3----------------|
--2------------0--2--|-------------------|--1----------------|


                                                                
------------------|------------------|------------------|------|
------------------|------------------|------------------|------|
------------------|------------------|------------------|------|
------------------|------------------|------------------|------|
------------------|------------------|------------------|------|
------------------|------------------|------------------|------|


                                                                            
-------------------|----------------------|--------------------------------|
-------------------|------16b-----16b-----|--------------------------------|
-------------------|------13b-----13b-----|----------13--x-x-15--13--------|
-------------------|----------------------|----------13--x-x-15--13--------|
--------------9b---|----------------------|----13-15-----------------10~---|
-------------------|----------------------|--------------------------------|


                                                                        
------|------|------------------------|--------------------------------|
------|------|------16b-----16b-------|--------------------------------|
------|------|------13b-----13b-------|------------13--x-x-15--13~-----|
------|------|------------------------|------------13--x-x-15--13~-----|
------|------|--------------------13--|--15--13-15---------------------|
------|------|------------------------|--------------------------------|


                                                          
----------------------------|----------------------------|
----------------------------|----------------------------|
------------4------------4--|------------4------------4--|
--6--6------4--6--6------4--|--6--6------4--6--6------4--|
--------4-6----------4-6----|--------4-6----------4-6----|
----------------------------|----------------------------|


                                                          
----------------------------|----------------------------|
----------------------------|----------------------------|
------------4------------4--|------------4------------4--|
--6--6------4--6--6------4--|--6--6------4--6--6------4--|
--------4-6----------4-6----|--------4-6----------4-6----|
----------------------------|----------------------------|


                                                          
----------------------------|----------------------------|
----------------------------|----------------------------|
------------7------------7--|------------7------------7--|
--(b9)-(b9)-----7--(b9)-(b9)-----7--|--(b9)-(b9)-----7--(b9)-(b9)-----7--|
--------7-(b9)---------7-(b9)---|--------7-(b9)---------7-(b9)---|
----------------------------|----------------------------|


                                                                              
----------------------------|----------------------------|-------------------|
----------------------------|----------------------------|-------------------|
------------7------------7--|------------7------------7--|-------------------|
--(b9)-(b9)-----7--(b9)-(b9)-----7--|--(b9)-(b9)-----7--(b9)-(b9)-----7--|--4----------------|
--------7-(b9)---------7-(b9)---|--------7-(b9)---------7-(b9)---|--4----------------|
----------------------------|----------------------------|--2----------------|


                                                                                
-------------------|-------------------|-------------------|-------------------|
-------------------|-------------------|-------------------|-------------------|
--2----------------|-------------------|--4----------------|--7----------------|
--2----------------|--4----------------|--4----------------|--7----------------|
--0----------------|--4----------------|--2----------------|--5----------------|
-------------------|--2----------------|-------------------|-------------------|


                                                              
-------------------|---------------------|-------------------|
-------------------|---------------------|-------------------|
-------------------|---------------------|--4----------------|
--2----------------|--4------------------|--4----------------|
--2----------------|--4------------------|--2----------------|
--0----------------|--2------------0--2--|-------------------|


                                                                                
-------------------|-------------------|-------------------|-------------------|
-------------------|-------------------|-------------------|-------------------|
-------------------|--2----------------|-------------------|--4----------------|
--4----------------|--2----------------|--4----------------|--4----------------|
--4----------------|--0----------------|--4----------------|--2----------------|
--2----------------|-------------------|--2----------------|-------------------|


                                                              
-------------------|-------------------|---------------------|
-------------------|-------------------|---------------------|
--7----------------|-------------------|---------------------|
--7----------------|--2----------------|--4------------------|
--5----------------|--2----------------|--4------------------|
-------------------|--0----------------|--2------------0--2--|


                                                                              
-------------------|-------------------|------------------|------------------|
-------------------|-------------------|------------------|------------------|
--4----------------|-------------------|------------------|------------------|
--4----------------|--3----------------|------------------|------------------|
--2----------------|--3----------------|------------------|------------------|
-------------------|--1----------------|------------------|------------------|


                                                              
------------------|-----------------------|------------------|
------------------|-----------------------|------------------|
------------------|-----------------------|------------------|
------------------|--3--3--x--3--6--------|------------------|
------------------|--3--3--x--3--6--------|------------------|
------------------|--1--1--x--1--4--------|------------------|


                                                                   
-----------------------|------------------|-----------------------|
-----------------------|------------------|-----------------------|
--------------3--------|------------------|-----------------------|
--3--3--x--3--3--------|------------------|--3--3--x--3--6--------|
--3--3--x--3--1--------|------------------|--3--3--x--3--6--------|
--1--1--x--1-----------|------------------|--1--1--x--1--4--------|


                                                              
------------------|-----------------------|------------------|
------------------|-----------------------|------------------|
------------------|--------------3--------|------------------|
------------------|--3--3--x--3--3--------|------------------|
------------------|--3--3--x--3--1--------|------------------|
------------------|--1--1--x--1-----------|------------------|


                                                                        
-----------------------|-----------------------|-----------------------|
-----------------------|-----------------------|-----------------------|
-----------------------|--------------3--------|-----------------------|
--3--3--x--3--6--------|--3--3--x--3--3--------|--3--3--x--3--6--------|
--3--3--x--3--6--------|--3--3--x--3--1--------|--3--3--x--3--6--------|
--1--1--x--1--4--------|--1--1--x--1-----------|--1--1--x--1--4--------|


                                                                         
------------------------|-----------------------|-----------------------|
------------------------|-----------------------|-----------------------|
------------------------|-----------------------|--------------3--------|
--3--3--x--3--6/---8----|--3--3--x--3--6--------|--3--3--x--3--3--------|
--3--3--x--3--4/---6----|--3--3--x--3--6--------|--3--3--x--3--1--------|
--1--1--x--1------------|--1--1--x--1--4--------|--1--1--x--1-----------|


                                                                     
-----------------------|------------------------|-------------------|
-----------------------|------------------------|-------------------|
-----------------------|------------------------|-------------------|
--3--3--x--3--6--------|--3--3--x--3--6/---8----|--5----------------|
--3--3--x--3--6--------|--3--3--x--3--4/---6----|--5----------------|
--1--1--x--1--4--------|--1--1--x--1------------|--3----------------|


                                                                                
-------------------|-------------------|-------------------|-------------------|
-------------------|-------------------|-------------------|-------------------|
-------------------|-------------------|--5----------------|--8----------------|
--8----------------|--5----------------|--5----------------|--8----------------|
--8----------------|--5----------------|--3----------------|--6----------------|
--6----------------|--3----------------|-------------------|-------------------|


                                                              
-------------------|---------------------|-------------------|
-------------------|---------------------|-------------------|
-------------------|---------------------|--5----------------|
--3----------------|--5------------------|--5----------------|
--3----------------|--5------------------|--3----------------|
--1----------------|--3------------0--3--|-------------------|


                                                                                
-------------------|-------------------|-------------------|-------------------|
-------------------|-------------------|-------------------|-------------------|
-------------------|-------------------|-------------------|--5----------------|
--5----------------|--8----------------|--5----------------|--5----------------|
--5----------------|--8----------------|--5----------------|--3----------------|
--3----------------|--6----------------|--3----------------|-------------------|


                                                              
-------------------|-------------------|---------------------|
-------------------|-------------------|---------------------|
--8----------------|-------------------|---------------------|
--8----------------|--3----------------|--5------------------|
--6----------------|--3----------------|--5------------------|
-------------------|--1----------------|--3------------0--3--|


                                                                    
-------------------|-----------------------|-----------------------|
-------------------|-----------------------|-----------------------|
--5----------------|-----------------------|--------------5--------|
--5----------------|--5--5--x--5--8--------|--5--5--x--5--5--------|
--3----------------|--5--5--x--5--8--------|--5--5--x--5--3--------|
-------------------|--3--3--x--3--6--------|--3--3--x--3-----------|


                                                                          
-----------------------|-------------------------|-----------------------|
-----------------------|-------------------------|-----------------------|
-----------------------|-------------------------|-----------------------|
--5--5--x--5--8--------|--5--5--x--5--8/---10----|--5--5--x--5--8--------|
--5--5--x--5--8--------|--5--5--x--5--6/---8-----|--5--5--x--5--8--------|
--3--3--x--3--6--------|--3--3--x--3-------------|--3--3--x--3--6--------|


                                                                          
-----------------------|-----------------------|-------------------------|
-----------------------|-----------------------|-------------------------|
--------------5--------|-----------------------|-------------------------|
--5--5--x--5--5--------|--5--5--x--5--8--------|--5--5--x--5--8/---10----|
--5--5--x--5--3--------|--5--5--x--5--8--------|--5--5--x--5--6/---8-----|
--3--3--x--3-----------|--3--3--x--3--6--------|--3--3--x--3-------------|


                                                                        
-----------------------|-----------------------|-----------------------|
-----------------------|-----------------------|-----------------------|
-----------------------|--------------5--------|-----------------------|
--5--5--x--5--8--------|--5--5--x--5--5--------|--5--5--x--5--8--------|
--5--5--x--5--8--------|--5--5--x--5--3--------|--5--5--x--5--8--------|
--3--3--x--3--6--------|--3--3--x--3-----------|--3--3--x--3--6--------|


                                                                          
-------------------------|-----------------------|-----------------------|
-------------------------|-----------------------|-----------------------|
-------------------------|-----------------------|--------------5--------|
--5--5--x--5--8/---10----|--5--5--x--5--8--------|--5--5--x--5--5--------|
--5--5--x--5--6/---8-----|--5--5--x--5--8--------|--5--5--x--5--3--------|
--3--3--x--3-------------|--3--3--x--3--6--------|--3--3--x--3-----------|


                                                                          
-----------------------|-------------------------|-----------------------|
-----------------------|-------------------------|-----------------------|
-----------------------|-------------------------|-----------------------|
--5--5--x--5--8--------|--5--5--x--5--8/---10----|--5--5--x--5--8--------|
--5--5--x--5--8--------|--5--5--x--5--6/---8-----|--5--5--x--5--8--------|
--3--3--x--3--6--------|--3--3--x--3-------------|--3--3--x--3--6--------|


                                                                          
-----------------------|-----------------------|-------------------------|
-----------------------|-----------------------|-------------------------|
--------------5--------|-----------------------|-------------------------|
--5--5--x--5--5--------|--5--5--x--5--8--------|--5--5--x--5--8/---10----|
--5--5--x--5--3--------|--5--5--x--5--8--------|--5--5--x--5--6/---8-----|
--3--3--x--3-----------|--3--3--x--3--6--------|--3--3--x--3-------------|


                                                                        
-----------------------|-----------------------|-----------------------|
-----------------------|-----------------------|-----------------------|
-----------------------|--------------5--------|-----------------------|
--5--5--x--5--8--------|--5--5--x--5--5--------|--5--5--x--5--8--------|
--5--5--x--5--8--------|--5--5--x--5--3--------|--5--5--x--5--8--------|
--3--3--x--3--6--------|--3--3--x--3-----------|--3--3--x--3--6--------|


                                                                          
-------------------------|-----------------------|-----------------------|
-------------------------|-----------------------|-----------------------|
-------------------------|-----------------------|--------------5--------|
--5--5--x--5--8/---10----|--5--5--x--5--8--------|--5--5--x--5--5--------|
--5--5--x--5--6/---8-----|--5--5--x--5--8--------|--5--5--x--5--3--------|
--3--3--x--3-------------|--3--3--x--3--6--------|--3--3--x--3-----------|


                                                                          
-----------------------|-------------------------|-----------------------|
-----------------------|-------------------------|-----------------------|
-----------------------|-------------------------|-----------------------|
--5--5--x--5--8--------|--5--5--x--5--8/---10----|--5--5--x--5--8--------|
--5--5--x--5--8--------|--5--5--x--5--6/---8-----|--5--5--x--5--8--------|
--3--3--x--3--6--------|--3--3--x--3-------------|--3--3--x--3--6--------|


                                                                          
-----------------------|-----------------------|-------------------------|
-----------------------|-----------------------|-------------------------|
--------------5--------|-----------------------|-------------------------|
--5--5--x--5--5--------|--5--5--x--5--8--------|--5--5--x--5--8/---10----|
--5--5--x--5--3--------|--5--5--x--5--8--------|--5--5--x--5--6/---8-----|
--3--3--x--3-----------|--3--3--x--3--6--------|--3--3--x--3-------------|


                                       
------------------|------------------||
------------------|------------------||
------------------|------------------||
------------------|------------------||
------------------|------------------||
------------------|------------------||		   
AcordesyTabs.com © 2008 Acordes y Tablaturas para guitarra. Tabs and Chords for guitar. Aviso Legal - Contacto
El uso de este sitio está sujeto a la aceptación de los términos y condiciones (30 usuarios online)