tablaturas, partituras y acordes para guitarra
Busca por banda/artista:
 
y/o título de la canción:
A B C D E F G H I J K L M N O P Q R S T U V W X Y Z 0 1 2 3 4 5 6 7 8 9 / Top 100 tabs
Categorías
Usuarios
usuario:
Darse de alta
password:
Artistas más visitados
Publicidad
TOP acordes y tablaturas de Megadeth


Estás en: Inicio > Letra M > Acordes y tablaturas de Megadeth > Devil's island
Devil's island
de Megadeth
Puntúa este acorde/tab:      
(0.4/5)
Reportar este acorde/tab
  Añadir a tus favoritos
  Imprimir
Dave Mustaine(Guitar I)
                                                                      
E||---------------------|-----------------------|--------------------|
B||---------------------|-----------------------|--------------------|
G||*--------------------|-----------------------|--------------------|
D||*-----------4--------|--3--------------------|-----------4--------|
A||---2--------2--------|--1--------2--0--------|--2--------2--------|
E||---0-----------------|-----------------2--3--|--0-----------------|


                                                                     
-----------------------|--------------------|-----------------------|
-----------------------|--------------------|-----------------------|
-----------------------|--------------------|-----------------------|
--3--------------------|-----------4--------|--3--------------------|
--1--------2--0--------|--2--------2--------|--1--------2--0--------|
-----------------2--3--|--0-----------------|-----------------2--3--|


                                             
--------------------|-----------------------|
--------------------|-----------------------|
--------------------|-----------------------|
-----------4--------|--3--------------------|
--2--------2--------|--1--------2--0--------|
--0-----------------|-----------------2--3--|


                                                                             
|---19t15p12-19t15p12-19t15p12-19t15p12-------------------------------------|
|---------------------------------------20t15p12-20t15p12-20t15p12-20t15p12-|
|*--------------------------------------------------------------------------|
|*--------------------------------------------------------------------------|
|---------------------------------------------------------------------------|
|---------------------------------------------------------------------------|


                                                                           
--------------------------------------------------------------------------|
--19t15p12-19t15p12-19t15p12-19t15p12-17t13p10-17t13p10-17t13p10-17t13p10-|
--------------------------------------------------------------------------|
--------------------------------------------------------------------------|
--------------------------------------------------------------------------|
--------------------------------------------------------------------------|


                                                                           
--19t15p12-19t15p12-19t15p12-19t15p12-------------------------------------|
--------------------------------------20t15p12-20t15p12-20t15p12-20t15p12-|
--------------------------------------------------------------------------|
--------------------------------------------------------------------------|
--------------------------------------------------------------------------|
--------------------------------------------------------------------------|


                                                                             
---------------------------------------------------------------------------||
--19t15p12-19t15p12-19t15p12-19t15p12-17t13p10-17t13p10-17t13p10-17t13p10--||
--------------------------------------------------------------------------*||
--------------------------------------------------------------------------*||
---------------------------------------------------------------------------||
---------------------------------------------------------------------------||


                                                                           
--19t15p12-19t15p12-19t15p12-19t15p12-------------------------------------|
--------------------------------------17t13p10-17t13p10-17t13p10-17t13p10-|
--------------------------------------------------------------------------|
--------------------------------------------------------------------------|
--------------------------------------------------------------------------|
--------------------------------------------------------------------------|


                                                               
--------------------------------------------------------------|
--12t10p8-12t10p8-12t10p8-12t10p8-10t7p4-10t7p4-10t7p4-10t7p4-|
--------------------------------------------------------------|
--------------------------------------------------------------|
--------------------------------------------------------------|
--------------------------------------------------------------|


                                                     
-------------------|--------------------------------|
-------------------|--------------------------------|
--7b---------------|--7b---7b---7b---7b---7b---7b---|
-------------------|--------------------------------|
-------------------|--------------------------------|
-------------------|--------------------------------|


                                                                   
-------------------------------|----------------------------------|
-------------------------------|----------------------------------|
--7b---7b---7b---7b---7r-------|--6h7p6h7p6h7p6h7p6h7p6h7p6h7p6h7-|
-------------------------------|----------------------------------|
-------------------------------|----------------------------------|
-------------------------------|----------------------------------|


                                                                      
----------------------------------|----------------------------------|
----------------------------------|----------------------------------|
--6h7p6h7p6h7p6h7p6h7p6h7p6h7p6h7-|--6h7p6h7p6h7p6h7p6h7p6h7p6h7p6h7-|
----------------------------------|----------------------------------|
----------------------------------|----------------------------------|
----------------------------------|----------------------------------|


                                                                      
----------------------------------|----------------------------------|
----------------------------------|----------------------------------|
--6h7p6h7p6h7p6h7p6h7p6h7p6h7p6h7-|--6h7p6h7p6h7p6h7p6h7p6h7p6h7p6h7-|
----------------------------------|----------------------------------|
----------------------------------|----------------------------------|
----------------------------------|----------------------------------|


                                                                             
-------------------|------------------|------------------|------------------|
-------------------|------------------|------------------|------------------|
-------------------|------------------|------------------|------------------|
--(b9)---------------|------------------|------------------|------------------|
--7----------------|------------------|------------------|------------------|
--0----------------|------------------|------------------|------------------|


                                                                              
-------------------|-------------------|------------------|------------------|
-------------------|-------------------|------------------|------------------|
-------------------|-------------------|------------------|------------------|
--(b9)---------------|--(b9)---------------|------------------|------------------|
--7----------------|--7----------------|------------------|------------------|
--0----------------|--0----------------|------------------|------------------|


                                                                
|-------------------------------|------------------------------|
|-------------------------------|------------------------------|
|*------------------------------|------------------------------|
|*------------------------------|------------------------------|
|---2---------------------------|--3---------------------------|
|---0--0-0-0--0-0-0--0-0-0--0-0-|--1--1-1-1--1-1-1--1-1-1--1-1-|


                                                                
------------------------------|-------------------------------||
------------------------------|-------------------------------||
------------------------------|------------------------------*||
------------------------------|------------------------------*||
--4---------------------------|--5----------------------------||
--2--2-2-2--2-2-2--2-2-2--2-2-|--3--3-3-3--3-3-3--3-3-3--3-3--||


                                                            
------------------------------||---------------------------|
------------------------------||---------------------------|
------------------------------||*--------------------------|
------------------------------||*--------------------------|
--5---------------------------||---2----5------------------|
--3--3-3-3--3-3-3--3-3-3--3-3-||---0----3----0--0-0-0--0-0-|


                                                      
--------------------------|--------------------------|
--------------------------|--------------------------|
--------------------------|--------------------------|
---------7-----------(b9)---|--------------------------|
---------5-----------7----|--2----5------------------|
--0--0-0------0--0-0------|--0----3----0--0-0-0--0-0-|


                                                                           
---------------------------||------------||-------------------------------|
---------------------------||------------||-------------------------------|
--------------------------*||------------||*------------------------------|
---------7-----------(b9)---*||------------||*------------------------------|
---------5-----------7-----||--2----5----||---2---------------------------|
--0--0-0------0--0-0-------||--0----3----||---0--0-0-0--0-0-0--0-0-0--0-0-|


                                                              
------------------------------|------------------------------|
------------------------------|------------------------------|
------------------------------|------------------------------|
------------------------------|------------------------------|
--3---------------------------|--4---------------------------|
--1--1-1-1--1-1-1--1-1-1--1-1-|--2--2-2-2--2-2-2--2-2-2--2-2-|


                                                                
-------------------------------||------------------------------|
-------------------------------||------------------------------|
------------------------------*||------------------------------|
------------------------------*||------------------------------|
--5----------------------------||--5---------------------------|
--3--3-3-3--3-3-3--3-3-3--3-3--||--3--3-3-3--3-3-3--3-3-3--3-3-|


                                                        
|---------------------------|--------------------------|
|---------------------------|--------------------------|
|*--------------------------|--------------------------|
|*--------------------------|---------7-----------(b9)---|
|---2----5------------------|---------5-----------7----|
|---0----3----0--0-0-0--0-0-|--0--0-0------0--0-0------|


                                                                     
--------------------------|---------------------------||------------|
--------------------------|---------------------------||------------|
--------------------------|--------------------------*||------------|
--------------------------|---------7-----------(b9)---*||--2----5----|
--2----5------------------|---------5-----------7-----||--2----5----|
--0----3----0--0-0-0--0-0-|--0--0-0------0--0-0-------||--0----3----|


                                                              
|------------------------------|-----------------------------|
|------------------------------|-----------------------------|
|*-----------------------------|-----------------------------|
|*-----------------------------|-----------------------------|
|----------5-------------6/-5--|---------5-------------6/-5--|
|---0--0-0-3--0-0-0--0-0-4/-3--|--0--0-0-3--0-0-0--0-0-4/-3--|


                                                              
-----------------------------|------------------------------||
-----------------------------|------------------------------||
-----------------------------|-----------------------------*||
-----------------------------|-----------------------------*||
---------5-------------6/-5--|---------5-------------6/-5---||
--0--0-0-3--0-0-0--0-0-4/-3--|--0--0-0-3--0-0-0--0-0-4/-3---||


                                                             
------------------------------|-----------------------------|
------------------------------|-----------------------------|
*-----------------------------|-----------------------------|
*-----------------------------|-----------------------------|
----------5-------------6/-5--|---------5-------------7/-8--|
---0--0-0-3--0-0-0--0-0-4/-3--|--0--0-0-3--0-0-0--0-0-5/-6--|


                                                              
-----------------------------|------------------------------||
-----------------------------|------------------------------||
-----------------------------|-----------------------------*||
-----------------------------|-----------------------------*||
---------5-------------6/-5--|---------5-------------7/-8---||
--0--0-0-3--0-0-0--0-0-4/-3--|--0--0-0-3--0-0-0--0-0-5/-6---||


                                                             
----------------------------||------------------------------|
----------------------------||------------------------------|
----------------------------||*-----------------------------|
----------------------------||*-----------------------------|
---------5/-4---------4/-3--||----------5-------------6/-5--|
--0--0-0-3/-2--0--0-0-2/-1--||---0--0-0-3--0-0-0--0-0-4/-3--|


                                                            
-----------------------------|-----------------------------|
-----------------------------|-----------------------------|
-----------------------------|-----------------------------|
-----------------------------|-----------------------------|
---------5-------------7/-8--|---------5-------------6/-5--|
--0--0-0-3--0-0-0--0-0-5/-6--|--0--0-0-3--0-0-0--0-0-4/-3--|


                                                                   
-----------------------------||-----------------------------------|
-----------------------------||-----------------------------------|
----------------------------*||*----------------------------------|
----------------------------*||*----------------------------------|
---------5/-4---------4/-3---||-----------------------2h3-2p0-----|
--0--0-0-3/-2--0--0-0-2/-1---||---2-2-2-2-2-2-2-2-2-2---------2p0-|


                                                           
-----------------------|----------------------------------|
-----------------------|----------------------------------|
-----------------------|----------------------------------|
----------7----6-------|----------------------------------|
--4----x--5----4----7--|----------------------2h3-2p0-----|
--2----x------------5--|--2-2-2-2-2-2-2-2-2-2---------2p0-|


                        3x                                    
------------------------||-----------------------------------|
------------------------||-----------------------------------|
-----------------------*||*----------------------------------|
-----------------------*||*----------------------------------|
--4----x--5----4----2---||-----------------------2h3-2p0-----|
--2----x--3----2----0---||---2-2-2-2-2-2-2-2-2-2---------2p0-|


                                                           
-----------------------|----------------------------------|
-----------------------|----------------------------------|
-----------------------|----------------------------------|
----------7----6-------|----------------------------------|
--4----x--5----4----7--|----------------------2h3-2p0-----|
--2----x------------5--|--2-2-2-2-2-2-2-2-2-2---------2p0-|


                                                  
------------------------||-----------------------|
------------------------||-----------------------|
-----------------------*||-----------------------|
-----------------------*||-----------------------|
--4----x--5----4----2---||--4----x--5----4----2--|
--2----x--3----2----0---||--2----x--3----2----0--|


                                                                              
--------------------------------------|--------------------------------------|
--------------------------------------|--------------------------------------|
--------------------------------------|--------------------------------------|
--------------14----12----------------|--------------14----12----------------|
--------14----------------14----------|--------14----------------14----------|
--12----------------------------12----|--13----------------------------13----|


                                                                              
--------------------------------------|--------------------------------------|
--------------------------------------|--------------------------------------|
--------------------------------------|--------------------------------------|
--------------14----12----------------|--------------14----12----------------|
--------14----------------14----------|--------14----------------14----------|
--12----------------------------12----|--13----------------------------13----|


                                                                              
--------------------------------------|--------------------------------------|
--------------------------------------|--------------------------------------|
--------------------12----------------|--------------------14----12----------|
--------------14----------14----------|--------------12----------------14----|
--------14----------------------14----|--------14----------------------------|
--12----------------------------------|--12----------------------------------|


                                                   
--15-12----12-------------------------------------|
--------15----15-12-15-12----12-------------------|
--------------------------14----14-12-14-12----12-|
--------------------------------------------14----|
--------------------------------------------------|
--------------------------------------------------|


                                                                        
--------------------------------------------------|--------------------|
--------------------------------------------------|--------------------|
--------------------------------------------------|--------------------|
--14-12-14-12----12-------------------------------|--------------------|
--------------14----14-12-14-12----12-------------|--------------------|
--------------------------------15----15-12-15-12-|--12----------------|


                                                         
------------------|------------------|------------------|
------------------|------------------|------------------|
------------------|------------------|------------------|
------------------|------------------|------------------|
------------------|------------------|------------------|
------------------|------------------|------------------|


                                                              
------------------------------|------------------------------|
------------------------------|------------------------------|
------------------------------|------------------------------|
------------------------------|------------------------------|
--2---------------------------|--3---------------------------|
--0--0-0-0--0-0-0--0-0-0--0-0-|--1--1-1-1--1-1-1--1-1-1--1-1-|


                                                              
------------------------------|------------------------------|
------------------------------|------------------------------|
------------------------------|------------------------------|
------------------------------|------------------------------|
--4---------------------------|--5---------------------------|
--2--2-2-2--2-2-2--2-2-2--2-2-|--3--3-3-3--3-3-3--3-3-3--3-3-|


                                                        
|---------------------------|--------------------------|
|---------------------------|--------------------------|
|*--------------------------|--------------------------|
|*--------------------------|---------7-----------(b9)---|
|---2----5------------------|---------5-----------7----|
|---0----3----0--0-0-0--0-0-|--0--0-0------0--0-0------|


                                                      3x             
--------------------------|---------------------------||------------|
--------------------------|---------------------------||------------|
--------------------------|--------------------------*||------------|
--------------------------|---------7-----------(b9)---*||------------|
--2----5------------------|---------5-----------7-----||--2----5----|
--0----3----0--0-0-0--0-0-|--0--0-0------0--0-0-------||--0----3----|


                                                              
|------------------------------|-----------------------------|
|------------------------------|-----------------------------|
|*-----------------------------|-----------------------------|
|*-----------------------------|-----------------------8/-(b9)-|
|----------5-------------6/-5--|---------5-------------6/-7--|
|---0--0-0-3--0-0-0--0-0-4/-3--|--0--0-0-3--0-0-0--0-0-------|


                                                          
-----------------------------|--------------------------||
-----------------------------|--------------------------||
-----------------------------|-------------------------*||
-----------------------------|-----9/-8-----------7----*||
---------5-------------6/-5--|-----7/-6-----------5-----||
--0--0-0-3--0-0-0--0-0-4/-3--|--0--------0--5--6--------||


                                                             
------------------------------|-----------------------------|
------------------------------|-----------------------------|
*-----------------------------|-----------------------------|
*-----------------------------|-----------------------8/-(b9)-|
----------5-------------6/-5--|---------5-------------6/-7--|
---0--0-0-3--0-0-0--0-0-4/-3--|--0--0-0-3--0-0-0--0-0-------|


                                                          
-----------------------------|--------------------------||
-----------------------------|--------------------------||
-----------------------------|-------------------------*||
-----------------------------|-----9/-8-----------7----*||
---------5-------------6/-5--|-----7/-6-----------5-----||
--0--0-0-3--0-0-0--0-0-4/-3--|--0--------0--5--6--------||


                                                        
-----------------------------|-------------------------|
-----------------------------|-------------------------|
-----------------------------|-------------------------|
-----------------------------|-----9/-8-----------7----|
---------5-------------6/-5--|-----7/-6-----------5----|
--0--0-0-3--0-0-0--0-0-4/-3--|--0--------0--5--6-------|


                                                              
|------------------------------|-----------------------------|
|------------------------------|-----------------------------|
|*-----------------------------|-----------------------------|
|*-----------------------------|-----------------------8/-(b9)-|
|----------5-------------6/-5--|---------5-------------6/-7--|
|---0--0-0-3--0-0-0--0-0-4/-3--|--0--0-0-3--0-0-0--0-0-------|


                                                        3x
-----------------------------|--------------------------||
-----------------------------|--------------------------||
-----------------------------|-------------------------*||
-----------------------------|-----9/-8-----------7----*||
---------5-------------6/-5--|-----7/-6-----------5-----||
--0--0-0-3--0-0-0--0-0-4/-3--|--0--------0--5--6--------||


                                                             
------------------------------|-----------------------------|
------------------------------|-----------------------------|
*-----------------------------|-----------------------------|
*-----------------------------|-----------------------8/-(b9)-|
----------5-------------6/-5--|---------5-------------6/-7--|
---0--0-0-3--0-0-0--0-0-4/-3--|--0--0-0-3--0-0-0--0-0-------|


                                                          
-----------------------------|--------------------------||
-----------------------------|--------------------------||
-----------------------------|-------------------------*||
-----------------------------|-----9/-8-----------7----*||
---------5-------------6/-5--|-----7/-6-----------5-----||
--0--0-0-3--0-0-0--0-0-4/-3--|--0--------0--5--6--------||


                                                
--------------------------|-------------------||
--------------------------|-------------------||
--------------------------|-------------------||
-----9/-8-----------7--(b9)-|--(b9)---------------||
-----7/-6-----------5--7--|--7----------------||
--0--------0--5--6--------|-------------------||		   
AcordesyTabs.com © 2008 Acordes y Tablaturas para guitarra. Tabs and Chords for guitar. Aviso Legal - Contacto
El uso de este sitio está sujeto a la aceptación de los términos y condiciones (37 usuarios online)