tablaturas, partituras y acordes para guitarra
Busca por banda/artista:
 
y/o título de la canción:
A B C D E F G H I J K L M N O P Q R S T U V W X Y Z 0 1 2 3 4 5 6 7 8 9 / Top 100 tabs
Categorías
Usuarios
usuario:
Darse de alta
password:
Artistas más visitados
Publicidad
TOP acordes y tablaturas de Megadeth


Ecstasy
de Megadeth
Puntúa este acorde/tab:      
(0.9/5)
Reportar este acorde/tab
  Añadir a tus favoritos
  Imprimir
Guitar I
                                                                             
E||--5----5----x--5--x--5--|--5----5----x--5--x--5--|--5----5----x--5--x--5--|
B||--6----6----x--6--x--6--|--6----6----x--6--x--6--|--6----6----x--6--x--6--|
G||--7----7----x--7--x--7--|--7----7----x--7--x--7--|--7----7----x--7--x--7--|
D||--7----7----x--7--x--7--|--7----7----x--7--x--7--|--7----7----x--7--x--7--|
A||--5----5----x--5--x--5--|--5----5----x--5--x--5--|--5----5----x--5--x--5--|
E||------------------------|------------------------|------------------------|

                                                                          
--5----5----x--5--x--5--|--5----5----x--5--x--5--|--5----5----x--5--x--5--|
--6----6----x--6--x--6--|--6----6----x--6--x--6--|--6----6----x--6--x--5--|
--7----7----x--7--x--7--|--7----7----x--7--x--7--|--7----7----x--7--x--6--|
--7----7----x--7--x--7--|--7----7----x--7--x--7--|--7----7----x--7--x--7--|
--5----5----x--5--x--5--|--5----5----x--5--x--5--|--5----5----x--5--x--5--|
------------------------|------------------------|------------------------|


                                                                           
--5----5----x--5--x--5--|--5----5----x--5--x--5--|--5----5----x--5--x--5--|
--5----5----x--5--x--5--|--5----5----x--5--x--6--|--6----6----x--6--x--6--|
--6----6----x--6--x--6--|--6----6----x--6--x--5--|--5----5----x--5--x--5--|
--7----7----x--7--x--7--|--7----7----x--7--x--7--|--7----7----x--7--x--7--|
--5----5----x--5--x--5--|--5----5----x--5--x--5--|--5----5----x--5--x--5--|
------------------------|------------------------|------------------------|


                                                                           
--5----5----x--5--x--3--|--3----3----x--3--x--3--|--3----3----x--3--x--5--|
--6----6----x--6--x--3--|--3----3----x--3--x--3--|--3----3----x--3--x--6--|
--5----5----x--5--x--4--|--4----4----x--4--x--4--|--4----4----x--4--x--7--|
--7----7----x--7--x--5--|--5----5----x--5--x--5--|--5----5----x--5--x--7--|
--5----5----x--5--x--5--|--5----5----x--5--x--5--|--5----5----x--5--x--5--|
------------------------|------------------------|------------------------|


                                                                           
--5----5----x--5--x--5--|--5----5----x--5--x--5--|--5----5----x--5--x--5--|
--6----6----x--6--x--6--|--6----6----x--6--x--5--|--5----5----x--5--x--5--|
--7----7----x--7--x--7--|--7----7----x--7--x--6--|--6----6----x--6--x--6--|
--7----7----x--7--x--7--|--7----7----x--7--x--7--|--7----7----x--7--x--7--|
--5----5----x--5--x--5--|--5----5----x--5--x--5--|--5----5----x--5--x--5--|
------------------------|------------------------|------------------------|


                                                                           
--5----5----x--5--x--5--|--5----5----x--5--x--5--|--5----5----x--5--x--3--|
--5----5----x--5--x--6--|--6----6----x--6--x--6--|--6----6----x--6--x--3--|
--6----6----x--6--x--5--|--5----5----x--5--x--5--|--5----5----x--5--x--4--|
--7----7----x--7--x--7--|--7----7----x--7--x--7--|--7----7----x--7--x--5--|
--5----5----x--5--x--5--|--5----5----x--5--x--5--|--5----5----x--5--x--5--|
------------------------|------------------------|------------------------|


                                                                           
--3----3----x--3--x--3--|--3----3----x--3--x--5--|--5----5----x--5--x--5--|
--3----3----x--3--x--3--|--3----3----x--3--x--6--|--6----6----x--6--x--6--|
--4----4----x--4--x--4--|--4----4----x--4--x--7--|--7----7----x--7--x--7--|
--5----5----x--5--x--5--|--5----5----x--5--x--7--|--7----7----x--7--x--7--|
--5----5----x--5--x--5--|--5----5----x--5--x--5--|--5----5----x--5--x--5--|
------------------------|------------------------|------------------------|


                                                                           
--5----5----x--5--x--5--|--5----5----x--5--x--5--|--5----5----x--5--x--5--|
--6----6----x--6--x--5--|--5----5----x--5--x--5--|--5----5----x--5--x--6--|
--7----7----x--7--x--6--|--6----6----x--6--x--6--|--6----6----x--6--x--5--|
--7----7----x--7--x--7--|--7----7----x--7--x--7--|--7----7----x--7--x--7--|
--5----5----x--5--x--5--|--5----5----x--5--x--5--|--5----5----x--5--x--5--|
------------------------|------------------------|------------------------|


                                                                           
--5----5----x--5--x--5--|--5----5----x--5--x--3--|--3----3----x--3--x--3--|
--6----6----x--6--x--6--|--6----6----x--6--x--3--|--3----3----x--3--x--3--|
--5----5----x--5--x--5--|--5----5----x--5--x--4--|--4----4----x--4--x--4--|
--7----7----x--7--x--7--|--7----7----x--7--x--5--|--5----5----x--5--x--5--|
--5----5----x--5--x--5--|--5----5----x--5--x--5--|--5----5----x--5--x--5--|
------------------------|------------------------|------------------------|


                                                                           
--3----3----x--3--x-----|------------------------|---------------------5--|
--3----3----x--3--x--5--|--5----5----x--5--x--5--|--5----5----x--5--x--6--|
--4----4----x--4--x--3--|--3----3----x--3--x--3--|--3----3----x--3--x--7--|
--0----0----x--0--x--5--|--5----5----x--5--x--5--|--5----5----x--5--x--7--|
------------------------|------------------------|---------------------5--|
------------------------|------------------------|------------------------|


                                                                           
--5----5----x--5--x--5--|--5----5----x--5--x--3--|--3----3----x--3--x--0--|
--6----6----x--6--x--6--|--6----6----x--6--x--3--|--3----3----x--3--x--3--|
--7----7----x--7--x--7--|--7----7----x--7--x--3--|--3----3----x--3--x--2--|
--7----7----x--7--x--7--|--7----7----x--7--x-----|------------------------|
--5----5----x--5--x--5--|--5----5----x--5--x-----|------------------------|
------------------------|------------------------|------------------------|


                                                                              
--0----0----x--0--x--0--|------------------------|---------------------------|
--3----3----x--3--x--3--|--2----x--3--3----3--2--|--2------------------------|
--2----2----x--2--x--2--|--2----x--3--3----3--2--|--2------------------------|
------------------------|--2----x--3--3----3--2--|--2--------x-x-x-x-x-x-x-x-|
------------------------|--0----x--1--1----1--0--|--0--------x-x-x-x-x-x-x-x-|
------------------------|------------------------|---------------------------|


                                                                            
------------------|------------------|------------------|------------------|
------------------|------------------|------------------|------------------|
------------------|------------------|------------------|------------------|
------------------|------------------|------------------|------------------|
------------------|------------------|------------------|------------------|
------------------|------------------|------------------|------------------|


                                                                            
------------------|------------------|------------------|------------------|
------------------|------------------|------------------|------------------|
------------------|------------------|------------------|------------------|
------------------|------------------|------------------|------------------|
------------------|------------------|------------------|------------------|
------------------|------------------|------------------|------------------|


                                                               
------------------|------------------|--5----5----x--5--x--5--|
------------------|------------------|--6----6----x--6--x--6--|
------------------|------------------|--7----7----x--7--x--7--|
------------------|------------------|--7----7----x--7--x--7--|
------------------|------------------|--5----5----x--5--x--5--|
------------------|------------------|------------------------|


                                                                           
--5----5----x--5--x--5--|--5----5----x--5--x--5--|--5----5----x--5--x--5--|
--6----6----x--6--x--5--|--5----5----x--5--x--5--|--5----5----x--5--x--6--|
--7----7----x--7--x--6--|--6----6----x--6--x--6--|--6----6----x--6--x--5--|
--7----7----x--7--x--7--|--7----7----x--7--x--7--|--7----7----x--7--x--7--|
--5----5----x--5--x--5--|--5----5----x--5--x--5--|--5----5----x--5--x--5--|
------------------------|------------------------|------------------------|


                                                                           
--5----5----x--5--x--5--|--5----5----x--5--x--3--|--3----3----x--3--x--3--|
--6----6----x--6--x--6--|--6----6----x--6--x--3--|--3----3----x--3--x--3--|
--5----5----x--5--x--5--|--5----5----x--5--x--4--|--4----4----x--4--x--4--|
--7----7----x--7--x--7--|--7----7----x--7--x--5--|--5----5----x--5--x--5--|
--5----5----x--5--x--5--|--5----5----x--5--x--5--|--5----5----x--5--x--5--|
------------------------|------------------------|------------------------|


                                                                           
--3----3----x--3--x--5--|--5----5----x--5--x--5--|--5----5----x--5--x--5--|
--3----3----x--3--x--6--|--6----6----x--6--x--6--|--6----6----x--6--x--5--|
--4----4----x--4--x--7--|--7----7----x--7--x--7--|--7----7----x--7--x--6--|
--5----5----x--5--x--7--|--7----7----x--7--x--7--|--7----7----x--7--x--7--|
--5----5----x--5--x--5--|--5----5----x--5--x--5--|--5----5----x--5--x--5--|
------------------------|------------------------|------------------------|


                                                                           
--5----5----x--5--x--5--|--5----5----x--5--x--5--|--5----5----x--5--x--5--|
--5----5----x--5--x--5--|--5----5----x--5--x--6--|--6----6----x--6--x--6--|
--6----6----x--6--x--6--|--6----6----x--6--x--5--|--5----5----x--5--x--5--|
--7----7----x--7--x--7--|--7----7----x--7--x--7--|--7----7----x--7--x--7--|
--5----5----x--5--x--5--|--5----5----x--5--x--5--|--5----5----x--5--x--5--|
------------------------|------------------------|------------------------|


                                                                           
--5----5----x--5--x--3--|--3----3----x--3--x--3--|--3----3----x--3--x-----|
--6----6----x--6--x--3--|--3----3----x--3--x--3--|--3----3----x--3--x--5--|
--5----5----x--5--x--4--|--4----4----x--4--x--4--|--4----4----x--4--x--3--|
--7----7----x--7--x--5--|--5----5----x--5--x--5--|--0----0----x--0--x--5--|
--5----5----x--5--x--5--|--5----5----x--5--x--5--|------------------------|
------------------------|------------------------|------------------------|


                                                                           
------------------------|---------------------5--|--5----5----x--5--x--5--|
--5----5----x--5--x--5--|--5----5----x--5--x--6--|--6----6----x--6--x--6--|
--3----3----x--3--x--3--|--3----3----x--3--x--7--|--7----7----x--7--x--7--|
--5----5----x--5--x--5--|--5----5----x--5--x--7--|--7----7----x--7--x--7--|
------------------------|---------------------5--|--5----5----x--5--x--5--|
------------------------|------------------------|------------------------|


                                                                           
--5----5----x--5--x--3--|--3----3----x--3--x--0--|--0----0----x--0--x--0--|
--6----6----x--6--x--3--|--3----3----x--3--x--3--|--3----3----x--3--x--3--|
--7----7----x--7--x--3--|--3----3----x--3--x--2--|--2----2----x--2--x--2--|
--7----7----x--7--x-----|------------------------|------------------------|
--5----5----x--5--x-----|------------------------|------------------------|
------------------------|------------------------|------------------------|


                                                                        
------------------------|---------------------------|------------------|
--2----x--3--3----3--2--|--2------------------------|------------------|
--2----x--3--3----3--2--|--2------------------------|------------------|
--2----x--3--3----3--2--|--2--------x-x-x-x-x-x-x-x-|------------------|
--0----x--1--1----1--0--|--0--------x-x-x-x-x-x-x-x-|------------------|
------------------------|---------------------------|------------------|


                                                                            
------------------|------------------|------------------|------------------|
------------------|------------------|------------------|------------------|
------------------|------------------|------------------|------------------|
------------------|------------------|------------------|------------------|
------------------|------------------|------------------|------------------|
------------------|------------------|------------------|------------------|


                                                                            
------------------|------------------|------------------|------------------|
------------------|------------------|------------------|------------------|
------------------|------------------|------------------|------------------|
------------------|------------------|------------------|------------------|
------------------|------------------|------------------|------------------|
------------------|------------------|------------------|------------------|


                                                                            
------------------|------------------|------------------|------------------|
------------------|------------------|------------------|------------------|
------------------|------------------|------------------|------------------|
------------------|------------------|------------------|------------------|
------------------|------------------|------------------|------------------|
------------------|------------------|------------------|------------------|


                                                                            
------------------|------------------|------------------|------------------|
------------------|------------------|------------------|------------------|
------------------|------------------|------------------|------------------|
------------------|------------------|------------------|------------------|
------------------|------------------|------------------|------------------|
------------------|------------------|------------------|------------------|


                                                                            
------------------|------------------|------------------|------------------|
------------------|------------------|------------------|------------------|
------------------|------------------|------------------|------------------|
------------------|------------------|------------------|------------------|
------------------|------------------|------------------|------------------|
------------------|------------------|------------------|------------------|


                                                                            
------------------|------------------|------------------|------------------|
------------------|------------------|------------------|------------------|
------------------|------------------|------------------|------------------|
------------------|------------------|------------------|------------------|
------------------|------------------|------------------|------------------|
------------------|------------------|------------------|------------------|


                                                                            
------------------|------------------|------------------|------------------|
------------------|------------------|------------------|------------------|
------------------|------------------|------------------|------------------|
------------------|------------------|------------------|------------------|
------------------|------------------|------------------|------------------|
------------------|------------------|------------------|------------------|


                                                                            
------------------|------------------|------------------|------------------|
------------------|------------------|------------------|------------------|
------------------|------------------|------------------|------------------|
------------------|------------------|------------------|------------------|
------------------|------------------|------------------|------------------|
------------------|------------------|------------------|------------------|


                                                                    
------------------|------------------|------------------|----------|
------------------|------------------|------------------|----------|
------------------|------------------|------------------|----------|
------------------|------------------|------------------|----------|
------------------|------------------|------------------|----------|
------------------|------------------|------------------|----------|


                                                                            
------------------|------------------|------------------|------------------|
------------------|------------------|------------------|------------------|
------------------|------------------|------------------|------------------|
------------------|------------------|------------------|------------------|
------------------|------------------|------------------|------------------|
------------------|------------------|------------------|------------------|


                                                                            
------------------|------------------|------------------|------------------|
------------------|------------------|------------------|------------------|
------------------|------------------|------------------|------------------|
------------------|------------------|------------------|------------------|
------------------|------------------|------------------|------------------|
------------------|------------------|------------------|------------------|


                                                                            
------------------|------------------|------------------|------------------|
------------------|------------------|------------------|------------------|
------------------|------------------|------------------|------------------|
------------------|------------------|------------------|------------------|
------------------|------------------|------------------|------------------|
------------------|------------------|------------------|------------------|


                                                                            
------------------|------------------|------------------|------------------|
------------------|------------------|------------------|------------------|
------------------|------------------|------------------|------------------|
------------------|------------------|------------------|------------------|
------------------|------------------|------------------|------------------|
------------------|------------------|------------------|------------------|


                                                                                
|-------------------|-------------------||------------------|------------------|
|-------------------|-------------------||------------------|------------------|
|*------------------|------------------*||------------------|------------------|
|*------------------|------------------*||------------------|------------------|
|-------------------|-------------------||------------------|------------------|
|-------------------|-------------------||------------------|------------------|


                                                                            
------------------|------------------|------------------|------------------|
------------------|------------------|------------------|------------------|
------------------|------------------|------------------|------------------|
------------------|------------------|------------------|------------------|
------------------|------------------|------------------|------------------|
------------------|------------------|------------------|------------------|


                                                                              2x
|-------------------|------------------|------------------|-------------------||
|-------------------|------------------|------------------|-------------------||
|*------------------|------------------|------------------|------------------*||
|*------------------|------------------|------------------|------------------*||
|-------------------|------------------|------------------|-------------------||
|-------------------|------------------|------------------|-------------------||		   
AcordesyTabs.com © 2008 Acordes y Tablaturas para guitarra. Tabs and Chords for guitar. Aviso Legal - Contacto
El uso de este sitio está sujeto a la aceptación de los términos y condiciones (19 usuarios online)