tablaturas, partituras y acordes para guitarra
Busca por banda/artista:
 
y/o título de la canción:
A B C D E F G H I J K L M N O P Q R S T U V W X Y Z 0 1 2 3 4 5 6 7 8 9 / Top 100 tabs
Categorías
Usuarios
usuario:
Darse de alta
password:
Artistas más visitados
Publicidad
TOP acordes y tablaturas de Megadeth


Fff
de Megadeth
Puntúa este acorde/tab:      
(0.3/5)
Reportar este acorde/tab
  Añadir a tus favoritos
  Imprimir
Guitar 1
                                                                              
E||------------------------|------------------------|------------------------|
B||------------------------|------------------------|------------------------|
G||--4--4-------4--4-------|--4--4-------4--4-------|--4--4-------4--4-------|
D||--4--4-------4--4-------|--4--4-------4--4-------|--4--4-------4--4-------|
A||--2--2----0--2--2----0--|--2--2-------2--2-------|--2--2----0--2--2----0--|
E||------------------------|--3--3----2--3--3----2--|------------------------|


                                                                           
------------------------|------------------------|------------------------|
------------------------|------------------------|------------------------|
--4--4-------4--4-------|--4--4-------4--4-------|--4--4-------4--4-------|
--4--4-------4--4-------|--4--4-------4--4-------|--4--4-------4--4-------|
--2--2-------2--2-------|--2--2----0--2--2----0--|--2--2-------2--2-------|
--3--3----2--3--3----2--|------------------------|--3--3----2--3--3----2--|


                                                                      
------------------------|------------------------|-------------------|
------------------------|------------------------|-------------------|
--2--2-------2--2-------|--2--2-------2--2-------|-------------------|
--2--2-------2--2-------|--2--2-------2--2-------|--4----------------|
--0--0-------0--0-------|--0--0-------0--0-------|--4----------------|
----------3----------3--|----------3----------3--|--2----------------|


                                                         
-------------------------------|------------------------|
-------------------------------|------------------------|
-------------------------------|--4--4-------4--4----7--|
--4----------------------------|--4--4-------4--4----7--|
--4----x-x-x-x-x-x-x-x-x-x-x-x-|--2--2----0--2--2----5--|
--2----x-x-x-x-x-x-x-x-x-x-x-x-|------------------------|


                                                                            
------------------------|------------------------|-------------------------|
------------------------|------------------------|-------------------------|
------------------------|--4--4-------4--4----7--|-------------------------|
--5--5-------5--5-------|--4--4-------4--4----7--|--5--5-------------------|
--5--5-------5--5-------|--2--2----0--2--2----5--|--5--5----------------0--|
--3--3----2--3--3----2--|------------------------|--3--3----2--0--2--3-----|


                                                                           
------------------------|------------------------|------------------------|
------------------------|------------------------|------------------------|
--4--4-------4--4----7--|------------------------|--2--2-------2--2-------|
--4--4-------4--4----7--|--5--5-------5--5-------|--2--2-------2--2-------|
--2--2----0--2--2----5--|--5--5-------5--5-------|--0--0-------0--0-------|
------------------------|--3--3----2--3--3----2--|----------3----------3--|


                                                                           
------------------------|------------------------|------------------------|
------------------------|------------------------|------------------------|
--2--2-------2--2-------|--4--4-------4--4----7--|------------------------|
--2--2-------2--2-------|--4--4-------4--4----7--|--5--5-------5--5-------|
--0--0-------0--0-------|--2--2----0--2--2----5--|--5--5-------5--5-------|
----------3----------3--|------------------------|--3--3----2--3--3----2--|


                                                                            
------------------------|-------------------------|------------------------|
------------------------|-------------------------|------------------------|
--4--4-------4--4----7--|-------------------------|--4--4-------4--4----7--|
--4--4-------4--4----7--|--5--5-------------------|--4--4-------4--4----7--|
--2--2----0--2--2----5--|--5--5----------------0--|--2--2----0--2--2----5--|
------------------------|--3--3----2--0--2--3-----|------------------------|


                                                  
------------------------|------------------------|
------------------------|------------------------|
------------------------|--2--2-------2--2-------|
--5--5-------5--5-------|--2--2-------2--2-------|
--5--5-------5--5-------|--0--0-------0--0-------|
--3--3----2--3--3----2--|----------3----------3--|


                                                        
------------------------------|------------------------|
------------------------------|--5--5-------5--5----8--|
--2--2--2--2-2-2--------------|--4--4-------4--4----7--|
--2--2--2--2-2-2--------------|--2--2----0--2--2----5--|
--0--0--0--0-0-0--0-0-0-0-0-0-|------------------------|
------------------------------|------------------------|


                                                                            
------------------------|---------------------3--|-------------------------|
------------------------|--5--5-------5--5----3--|-------------------------|
--5--5-------5--5-------|--4--4-------4--4----0--|--5--5-------2-----------|
--5--5-------5--5-------|--2--2----0--2--2-------|--5--5----------5--4--3--|
--3--3----2--3--3----2--|------------------------|--3--3----2--------------|
------------------------|------------------------|-------------------------|


                                                                           
---------------------3--|------------------------|------------------------|
--5--5-------5--5----3--|------------------------|--3--3-------3--3-------|
--4--4-------4--4----0--|--5--5-------5--5-------|--2--2-------2--2-------|
--2--2----0--2--2-------|--5--5-------5--5-------|--0--0-------0--0-------|
------------------------|--3--3----2--3--3----2--|----------3----------3--|
------------------------|------------------------|------------------------|


                                                            
------------------------|----------------------------------|
--3--3-------3--3-------|----------------------------------|
--2--2-------2--2-------|--16--16--14--16--16/-1(b9)-18--1(b9)-|
--0--0-------0--0-------|----------------------------------|
----------3----------3--|----------------------------------|
------------------------|----------------------------------|


                                                          
----------------------|----------------------------------|
----------------------|----------------------------------|
--19/---12------------|--16--16--14--16--16/-1(b9)-18--1(b9)-|
----------------------|----------------------------------|
----------------------|----------------------------------|
----------------------|----------------------------------|


                                                          
----------------------|----------------------------------|
----------------------|----------------------------------|
--19/---12------------|--16--16--14--16--16/-1(b9)-18--1(b9)-|
----------------------|----------------------------------|
----------------------|----------------------------------|
----------------------|----------------------------------|


                                                                         
----------------------|------------------------|------------------------|
----------------------|------------------------|------------------------|
--19/---12------------|--(b9)-(b9)---9/-(b9)-(b9)---9/-|--(b9)-(b9)---9/-(b9)-(b9)---9/-|
----------------------|------------------------|------------------------|
----------------------|------------------------|------------------------|
----------------------|------------------------|------------------------|


                                                                 
-------------------|-------------------|------------------------|
-------------------|-------------------|------------------------|
--6----------------|--6----------------|--4--4-------4--4----7--|
-------------------|-------------------|--4--4-------4--4----7--|
-------------------|-------------------|--2--2----0--2--2----5--|
-------------------|-------------------|------------------------|


                                                                            
------------------------|------------------------|-------------------------|
------------------------|------------------------|-------------------------|
------------------------|--4--4-------4--4----7--|-------------------------|
--5--5-------5--5-------|--4--4-------4--4----7--|--5--5-------------------|
--5--5-------5--5-------|--2--2----0--2--2----5--|--5--5----------------0--|
--3--3----2--3--3----2--|------------------------|--3--3----2--0--2--3-----|


                                                                           
------------------------|------------------------|------------------------|
------------------------|------------------------|------------------------|
--4--4-------4--4----7--|------------------------|--2--2-------2--2-------|
--4--4-------4--4----7--|--5--5-------5--5-------|--2--2-------2--2-------|
--2--2----0--2--2----5--|--5--5-------5--5-------|--0--0-------0--0-------|
------------------------|--3--3----2--3--3----2--|----------3----------3--|


                                                                           
------------------------|------------------------|------------------------|
------------------------|------------------------|------------------------|
--2--2-------2--2-------|--4--4-------4--4----7--|------------------------|
--2--2-------2--2-------|--4--4-------4--4----7--|--5--5-------5--5-------|
--0--0-------0--0-------|--2--2----0--2--2----5--|--5--5-------5--5-------|
----------3----------3--|------------------------|--3--3----2--3--3----2--|


                                                                            
------------------------|-------------------------|------------------------|
------------------------|-------------------------|------------------------|
--4--4-------4--4----7--|-------------------------|--4--4-------4--4----7--|
--4--4-------4--4----7--|--5--5-------------------|--4--4-------4--4----7--|
--2--2----0--2--2----5--|--5--5----------------0--|--2--2----0--2--2----5--|
------------------------|--3--3----2--0--2--3-----|------------------------|


                                                  
------------------------|------------------------|
------------------------|------------------------|
------------------------|--2--2-------2--2-------|
--5--5-------5--5-------|--2--2-------2--2-------|
--5--5-------5--5-------|--0--0-------0--0-------|
--3--3----2--3--3----2--|----------3----------3--|


                                                        
------------------------------|------------------------|
------------------------------|--5--5-------5--5----8--|
--2--2--2--2-2-2--------------|--4--4-------4--4----7--|
--2--2--2--2-2-2--------------|--2--2----0--2--2----5--|
--0--0--0--0-0-0--0-0-0-0-0-0-|------------------------|
------------------------------|------------------------|


                                                                            
------------------------|---------------------3--|-------------------------|
------------------------|--5--5-------5--5----3--|-------------------------|
--5--5-------5--5-------|--4--4-------4--4----0--|--5--5-------2-----------|
--5--5-------5--5-------|--2--2----0--2--2-------|--5--5----------5--4--3--|
--3--3----2--3--3----2--|------------------------|--3--3----2--------------|
------------------------|------------------------|-------------------------|


                                                                           
---------------------3--|------------------------|------------------------|
--5--5-------5--5----3--|------------------------|--3--3-------3--3-------|
--4--4-------4--4----0--|--5--5-------5--5-------|--2--2-------2--2-------|
--2--2----0--2--2-------|--5--5-------5--5-------|--0--0-------0--0-------|
------------------------|--3--3----2--3--3----2--|----------3----------3--|
------------------------|------------------------|------------------------|


                                                            
------------------------|----------------------------------|
--3--3-------3--3-------|----------------------------------|
--2--2-------2--2-------|--16--16--14--16--16/-1(b9)-18--1(b9)-|
--0--0-------0--0-------|----------------------------------|
----------3----------3--|----------------------------------|
------------------------|----------------------------------|


                                                          
----------------------|----------------------------------|
----------------------|----------------------------------|
--19/---12------------|--16--16--14--16--16/-1(b9)-18--1(b9)-|
----------------------|----------------------------------|
----------------------|----------------------------------|
----------------------|----------------------------------|


                                                          
----------------------|----------------------------------|
----------------------|----------------------------------|
--19/---12------------|--16--16--14--16--16/-1(b9)-18--1(b9)-|
----------------------|----------------------------------|
----------------------|----------------------------------|
----------------------|----------------------------------|


                                                                         
----------------------|------------------------|------------------------|
----------------------|------------------------|------------------------|
--19/---12------------|--(b9)-(b9)---9/-(b9)-(b9)---9/-|--(b9)-(b9)---9/-(b9)-(b9)---9/-|
----------------------|------------------------|------------------------|
----------------------|------------------------|------------------------|
----------------------|------------------------|------------------------|


                                                              
-------------------|-------------------|---------------------|
-------------------|-------------------|---------------------|
--6----------------|--6----------------|-----------------2---|
-------------------|-------------------|--4~---------------4-|
-------------------|-------------------|---------------------|
-------------------|-------------------|---------------------|


                                                              
------------------------|------------------------------------|
------------------------|------------------------------------|
--2----2~------2--4p2p0-|-----0h2h4--2--0--2h-4h-5--4p-2p-0--|
------------------------|--4---------------------------------|
------------------------|------------------------------------|
------------------------|------------------------------------|


                                                                  
----------------------------------|------------------------------|
-----12/---10--8--7---------------|----------7-7-7--8-8-8--10-10-|
---------------------(b9)-----------|----------x-x-x--x-x-x--x--x--|
--4---------------------10--(b9)-7--|----------4-4-4--5-5-5--7--7--|
----------------------------------|--9~---9/---------------------|
----------------------------------|------------------------------|


                                                                               
----------------------------------------------|-------------------------------|
--10-10/13--13-13/17-17-17/-20-20-20-20-20-20-|--20-1(b9)19~---8----7h8p7/5--7/-|
--x--x--x---x--x--x--x--x---x--x--x--x--x--x--|-----x--x~---------------------|
--7--7/-10--10-10/14-14-14/-17-17-17-17-17-17-|--17-16-16~--------------------|
----------------------------------------------|-------------------------------|
----------------------------------------------|-------------------------------|


                                                                           
-----------------------------------|--------------------------7-----------|
--10----(b9)---8----7h-8p7-----------|------7-8-10-8p7---7h8-10---10p7-10p7-|
-------------------------10--(b9)-8--|--7h(b9)-----------(b9)-------------------|
-----------------------------------|--------------------------------------|
-----------------------------------|--------------------------------------|
-----------------------------------|--------------------------------------|


                                                                     
----------10------------|-------------------------------------------|
--10b---------10~-------|-------------------------------------10h12-|
------------------------|--------------------------(b9)12-11/12-------|
------------------------|----------------7(b9)11h12------------------|
------------------------|---------7-10p(b9)---------------------------|
------------------------|--7-(b9)10-----------------------------------|


                                               
-----10-14p10-12p(b9)10-(b9)----------------------|
--14------------------------15-17p16p15-19p18p|
------------------------18--------------------|
----------------------------------------------|
----------------------------------------------|
----------------------------------------------|


                                                                          
----------------------------------------------|--------------------------|
--17-15-15-17-15-15----------16-15r-15b----17b|-----15-17------15~-------|
--------------------16-14-16------------------|------------16------------|
----------------------------------------------|--------------------------|
----------------------------------------------|--------------------------|
----------------------------------------------|--------------------------|


                                                                            
--------------14-------------14-------|------14--18p14---------------14-17-|
----17r-17b------17-14----14----17p14-|--17b-----------14--17b-17b---------|
-----------------------16b------------|------------------------------------|
--------------------------------------|------------------------------------|
--------------------------------------|------------------------------------|
--------------------------------------|------------------------------------|


                                                                        
--17r---17----17b---17b---17b---|--17b---17b---17b---19b---19b---19b---|
--------------------17b---17b---|--17b---17b---17b---------------------|
--------------------------------|--------------------------------------|
--------------------------------|--------------------------------------|
--------------------------------|--------------------------------------|
--------------------------------|--------------------------------------|


                                                                              
--19b-----19/-2------1(b9)-----|--22b-22--1(b9)---22p1(b9)----24p1(b9)---22p1(b9)------|
-----------------1(b9)-----1(b9)-|-------------22-------22--------22-------22p1(b9)|
-----------------------------|-----------------------------------------------|
-----------------------------|-----------------------------------------------|
-----------------------------|-----------------------------------------------|
-----------------------------|-----------------------------------------------|


                                             
----17-----18-------------19p14----17-------|
-------17b----17r17-15h17-------15----17p15-|
--------------------------------------------|
--------------------------------------------|
--------------------------------------------|
--------------------------------------------|


                                                 
---------------------14-------------17p14-------|
-----15-------12/-14----14p12----12----------17-|
--16----16p14-----------------14----------16----|
------------------------------------------------|
------------------------------------------------|
------------------------------------------------|


                                                                                
--------------------------------|--------------------------|-------------------|
------------------------17~-----|--15b-------15--12--------|-------------------|
--14-14-14-16-16r-16b---16~-----|--------------------(b9)-7--|-------------------|
--------------------------------|--------------------------|--9~---------------|
--------------------------------|--------------------------|-------------------|
--------------------------------|--------------------------|-------------------|


                                                                            
------------------|------------------|------------------|------------------|
------------------|------------------|------------------|------------------|
------------------|------------------|------------------|------------------|
------------------|------------------|------------------|------------------|
------------------|------------------|------------------|------------------|
------------------|------------------|------------------|------------------|


                                                         
------------------|------------------|------------------|
------------------|------------------|------------------|
------------------|------------------|------------------|
------------------|------------------|------------------|
------------------|------------------|------------------|
------------------|------------------|------------------|


                                                          
----------------------------------|----------------------|
--15--15--14--15------1(b9)-17--1(b9)-|--19/---12------------|
--16--16--14--16--16/-1(b9)-18--1(b9)-|--19/---12------------|
----------------------------------|----------------------|
----------------------------------|----------------------|
----------------------------------|----------------------|


                                                          
----------------------------------|----------------------|
--15--15--14--15------1(b9)-17--1(b9)-|--19/---12------------|
--16--16--14--16--16/-1(b9)-18--1(b9)-|--19/---12------------|
----------------------------------|----------------------|
----------------------------------|----------------------|
----------------------------------|----------------------|


                                                          
----------------------------------|----------------------|		   
AcordesyTabs.com © 2008 Acordes y Tablaturas para guitarra. Tabs and Chords for guitar. Aviso Legal - Contacto
El uso de este sitio está sujeto a la aceptación de los términos y condiciones (30 usuarios online)