tablaturas, partituras y acordes para guitarra
Busca por banda/artista:
 
y/o título de la canción:
A B C D E F G H I J K L M N O P Q R S T U V W X Y Z 0 1 2 3 4 5 6 7 8 9 / Top 100 tabs
Categorías
Usuarios
usuario:
Darse de alta
password:
Artistas más visitados
Publicidad
TOP acordes y tablaturas de Megadeth


Estás en: Inicio > Letra M > Acordes y tablaturas de Megadeth > Have cool will travel
Have cool will travel
de Megadeth
Puntúa este acorde/tab:      
(0.5/5)
Reportar este acorde/tab
  Añadir a tus favoritos
  Imprimir
Guitar 1



                                                           
E||---------------------------|---------------------------|
B||---------------------------|---------------------------|
G||---------------------------|---------------------------|
D||--(b9)(b9)(b9)(b9)9/---x-----------|--(b9)(b9)(b9)(b9)9/---x--------7--|
A||--7-7-7-7-7/---x-7---8--(b9)-|--7-7-7-7-7/---x-7---8--5--|
E||---------------x-5---6--7--|---------------x-5---6-----|


                                                        
---------------------------|---------------------------|
---------------------------|---------------------------|
---------------------------|---------------------------|
--(b9)(b9)(b9)(b9)9/---x-----------|--(b9)(b9)(b9)(b9)9/---x--------7--|
--7-7-7-7-7/---x-7---8--(b9)-|--7-7-7-7-7/---x-7---8--5--|
---------------x-5---6--7--|---------------x-5---6-----|


                                                          
|----------------------------|---------------------------|
|----------------------------|---------------------------|
|*---------------------------|---------------------------|
|*--(b9)(b9)(b9)(b9)9/---x-----------|--(b9)(b9)(b9)(b9)9/---x--------7--|
|---7-7-7-7-7/---x-7---8--(b9)-|--7-7-7-7-7/---x-7---8--5--|
|----------------x-5---6--7--|---------------x-5---6-----|


                                                        
---------------------------|---------------------------|
---------------------------|---------------------------|
---------------------------|---------------------------|
--(b9)(b9)(b9)(b9)9/---x-----------|--(b9)(b9)(b9)(b9)9/---x--------7--|
--7-7-7-7-7/---x-7---8--(b9)-|--7-7-7-7-7/---x-7---8--5--|
---------------x-5---6--7--|---------------x-5---6-----|


                                                        
---------------------------|---------------------------|
---------------------------|---------------------------|
---------------------------|---------------------------|
--(b9)(b9)(b9)(b9)9/---x-----------|--(b9)(b9)(b9)(b9)9/---x--------7--|
--7-7-7-7-7/---x-7---8--(b9)-|--7-7-7-7-7/---x-7---8--5--|
---------------x-5---6--7--|---------------x-5---6-----|


                                                          
---------------------------|-----------------------------|
---------------------------|-----------------------------|
---------------------------|-----------------------------|
--(b9)(b9)(b9)(b9)9/---x-----------|--(b9)(b9)(b9)(b9)(b9)-----------------|
--7-7-7-7-7/---x-7---8--(b9)-|--7-7-7-7-7------------2-----|
---------------x-5---6--7--|---------------7-5-3-2-0---2-|


                                                            
-----------------------------|-----------------------------|
-----------------------------|-----------------------------|
-----------------------------|-----------------------------|
--4----2---------------------|--4----2---------------------|
------------4----3----2------|------------4----3----2------|
-----2----2----2----2----5p2-|-----2----2----2----2----5p2-|


                                                            
-----------------------------|-----------------------------|
-----------------------------|-----------------------------|
-----------------------------|-----------------------------|
--4----2---------------------|--4----2---------------------|
------------4----3----2------|------------4----3----2------|
-----2----2----2----2----5p2-|-----2----2----2----2----5-2-|


                                                          
---------------------------|----------------------------||
---------------------------|----------------------------||
---------------------------|------------------------7--*||
--(b9)(b9)(b9)(b9)(b9)---x-----------|--(b9)(b9)(b9)(b9)(b9)---x--------5--*||
--7-7-7-7-7----x-7---8--(b9)-|--7-7-7-7-7----x-7---8------||
---------------x-5---6--7--|---------------x-5---6------||


                                                      
--------------------------|--------------------------|
-----------7-----8--------|-----------7-----5--------|
--------(b9)----(b9)----(b9)----|--------7-----7-----7-----|
-----(b9)----------------(b9)-|-----5-----------------5--|
--7-----------------------|--5-----------------------|
--------------------------|--------------------------|


                                                      
-----------2-----3--------|--------------7-----------|
--------1-----1-----1-----|-----------8-----8--------|
-----0-----------------0--|--------6-----------6--0--|
--------------------------|-----7--------------------|
--3-----------------------|--0-----------------------|
--------------------------|--------------------------|


                                                      
--------------------------|--------------------------|
-----------7-----8--------|-----------7-----5--------|
--------(b9)----(b9)----(b9)----|--------7-----7-----7-----|
-----(b9)----------------(b9)-|-----5-----------------5--|
--7-----------------------|--5-----------------------|
--------------------------|--------------------------|


                                                                             
-----------2-----3--------|--------------7-----------|----------------------|
--------1-----1-----1-----|-----------8-----8--------|--------x-x-14b-------|
-----0-----------------0--|--------6-----------6--0--|--------x-x-----------|
--------------------------|-----7--------------------|----------------------|
--3-----------------------|--0-----------------------|----------------------|
--------------------------|--------------------------|----------------------|


                                                                    
------12--------------|--12--------------------15------------------|
---------14b----------|-----15p12-----------------15---------------|
----------------------|-----------14r14--14b---------14r14-12~-12/-|
----------------------|--------------------------------------------|
----------------------|--------------------------------------------|
----------------------|--------------------------------------------|


                                                                       
-------------------------------------------------------12-14-15p14-12-|
----------------------------------------------------14----------------|
--x----------12-------------12----16-12----12-14-15-------------------|
--x-------12-------12-13-14----14-------14----------------------------|
----12-14-------14----------------------------------------------------|
----------------------------------------------------------------------|


                                                                              
--14~---------------|------------------|------------------|------------------|
--------------------|------------------|------------------|------------------|
--------------------|------------------|------------------|------------------|
--------------------|------------------|------------------|------------------|
--------------------|------------------|------------------|------------------|
--------------------|------------------|------------------|------------------|


                                                                    
--------------------------|----------------------------------------|
--------------------------|----------------------------------------|
--2b--2b--2b-2b--2r2--1-2-|--2--1~2~1~2~1~2~2~1~2~1~2~2/-16/-4-----|
--------------------------|--------------------------------------0-|
--------------------------|----------------------------------------|
--------------------------|----------------------------------------|


                            
---------------------------|
---------------------------|
---------------------------|
--3~--0-2~-----------------|
------------3-5-2-3---2/---|
--------------------5------|


                                                                              
----------------------------------------------------------|------------------|
--12h13p12-10h12p10-9h10p(b9)5h9p6-9h10p(b9)6h8p6-5h7p5-3h5p3-|------------------|
----------------------------------------------------------|------------------|
----------------------------------------------------------|------------------|
----------------------------------------------------------|------------------|
----------------------------------------------------------|------------------|


                                                         
------------------|------------------|------------------|
------------------|------------------|------------------|
------------------|------------------|------------------|
------------------|------------------|------------------|
------------------|------------------|------------------|
------------------|------------------|------------------|


                                                      
--------------------------|--------------------------|
-----------7-----8--------|-----------7-----5--------|
--------(b9)----(b9)----(b9)----|--------7-----7-----7-----|
-----(b9)----------------(b9)-|-----5-----------------5--|
--7-----------------------|--5-----------------------|
--------------------------|--------------------------|


                                                      
-----------2-----3--------|--------------7-----------|
--------1-----1-----1-----|-----------8-----8--------|
-----0-----------------0--|--------6-----------6--0--|
--------------------------|-----7--------------------|
--3-----------------------|--0-----------------------|
--------------------------|--------------------------|


                                                      
--------------------------|--------------------------|
-----------7-----8--------|-----------7-----5--------|
--------(b9)----(b9)----(b9)----|--------7-----7-----7-----|
-----(b9)----------------(b9)-|-----5-----------------5--|
--7-----------------------|--5-----------------------|
--------------------------|--------------------------|


                                                      
-----------2-----3--------|--------------7-----------|
--------1-----1-----1-----|-----------8-----8--------|
-----0-----------------0--|--------6-----------6--0--|
--------------------------|-----7--------------------|
--3-----------------------|--0-----------------------|
--------------------------|--------------------------|


                                                      
--------------------------|--------------------------|
-----------7-----8--------|-----------7-----5--------|
--------(b9)----(b9)----(b9)----|--------7-----7-----7-----|
-----(b9)----------------(b9)-|-----5-----------------5--|
--7-----------------------|--5-----------------------|
--------------------------|--------------------------|


                                                      
-----------2-----3--------|--------------7-----------|
--------1-----1-----1-----|-----------8-----8--------|
-----0-----------------0--|--------6-----------6--0--|
--------------------------|-----7--------------------|
--3-----------------------|--0-----------------------|
--------------------------|--------------------------|


                                                      
--------------------------|--------------------------|
-----------7-----8--------|-----------7-----5--------|
--------(b9)----(b9)----(b9)----|--------7-----7-----7-----|
-----(b9)----------------(b9)-|-----5-----------------5--|
--7-----------------------|--5-----------------------|
--------------------------|--------------------------|


                                                      
-----------2-----3--------|--------------7-----------|
--------1-----1-----1-----|-----------8-----8-----8--|
-----0-----------------0--|--------6-----------6-----|
--------------------------|-----7--------------------|
--3-----------------------|--0-----------------------|
--------------------------|--------------------------|


                                                                 
--------------------------|------------------|------------------|
-----7--------7-----------|------------------|------------------|
--------8--------8-----8--|------------------|------------------|
--7--------6--------6-----|------------------|------------------|
--------------------------|------------------|------------------|
--------------------------|------------------|------------------|


                                                                                
------------------|-----------------0-----1(b9)---|---1(b9)----1(b9)-----------------|
------------------|---------------7/--22b----22b|------22b----22~--------22-20-|
------------------|--x----x---------------------|------------------------------|
------------------|--x----x----x----------------|------------------------------|
------------------|--x----x----x----------------|------------------------------|
------------------|-----------------------------|------------------------------|


                                                                  
-----1(b9)----------------------|----------------------------------|
--22----19b-------------------|----------------------------------|
------------19~-----19/---14--|--14b---------14b-14b-14b-14b-14b-|
------------------------------|----------------------------------|
------------------------------|----------------------------------|
------------------------------|----------------------------------|


                                                            
----------------------------|------------------------------|
----------------------------|------------------------------|
--14b-14b-14b-14~-----------|------------------------------|
----------------------------|------------------------------|
----------------------------|------x-x-x-x-x-x-x-x-x-x-x-x-|
----------------------------|------x-x-x-x-x-x-x-x-x-x-x-x-|


                                                              
--------------------|------------------|--------------------||
--------------------|------------------|--------------------||
-------7------------|------------------|--7----7------------||
--------------------|------------------|--------------------||
--x-----------------|------------------|--------------------||
--x-----------------|------------------|--------------------||		   
AcordesyTabs.com © 2008 Acordes y Tablaturas para guitarra. Tabs and Chords for guitar. Aviso Legal - Contacto
El uso de este sitio está sujeto a la aceptación de los términos y condiciones (24 usuarios online)