tablaturas, partituras y acordes para guitarra
Busca por banda/artista:
 
y/o título de la canción:
A B C D E F G H I J K L M N O P Q R S T U V W X Y Z 0 1 2 3 4 5 6 7 8 9 / Top 100 tabs
Categorías
Usuarios
usuario:
Darse de alta
password:
Artistas más visitados
Publicidad
TOP acordes y tablaturas de 311


Estás en: Inicio > Letra 3 > Acordes y tablaturas de 311 > Beautiful Disaster
Beautiful Disaster
de 311
Puntúa este acorde/tab:      
(0.6/5)
Reportar este acorde/tab
  Añadir a tus favoritos
  Imprimir
Beautiful Disaster - 311
Album: Transistor   Tuning = Standard
Tab submitted by: Sierra B. / shreditup666@yahoo.com
The other tabs just didnt sound right to me, this one is much better.

Intro A:
-------------------------------------------------------------------
-------------------------------------------------------------------
-------------------------------------------------------------------
-------------------------------------------------------------------
-2-0-2---------0--2-0-2---------0--2-0-2---------0--2-0-2---------0
-------3-2-3-2----------3-2-3-2----------3-2-3-2----------3-2-3-2--
PM.................................................................


Intro B:
--------------------------------------------------------------
--------------------------------------------------------------
--------------------------------------------------------------
--------------------------------------------------------------
-2-0-2---------0--2-0-2---------0--2-0-2---------0--2-0-----2-
-------3-2-3-2----------3-2-3-2----------3-2-3-2--------2-3---
PM............................................................


Solo 1:
[Guitar 1]
-2--2-2-2-3-2-0-2-0------------0-0-0-2-0-
--------------------3-3--3-3-3-----------
-----------------------------------------
-----------------------------------------
-----------------------------------------
-----------------------------------------

-2--2-2-2-3-2-0-2-0------------0-0-0-2-0-
--------------------3-3--3-3-3-----------
-----------------------------------------
-----------------------------------------
-----------------------------------------
-----------------------------------------

   
-2-3-5--7-5-3--3-5-7-5-3-5-7-5-3-2-0-2-0-------------0-0-0-2-0-
------------------------------------------3--3-3-3-3-----------
---------------------------------------------------------------
---------------------------------------------------------------
---------------------------------------------------------------
---------------------------------------------------------------

[Guitar 2:]
---------------------------------------
-3--3-3-3-5-3-2-3-2-0-0--0-0-0-2-2-3-2-
---------------------------------------
---------------------------------------
---------------------------------------
---------------------------------------

---------------------------------------
-3--3-3-3-5-3-2-3-2-0-0--0-0-0-2-2-3-2-
---------------------------------------
---------------------------------------
---------------------------------------
---------------------------------------

---0-2--3-2-0--0-2-3-2-0-2-3-2-0------------------------------
-3-------------------------------3-2-3-2-0--0-0-0-0-2-2-2-3-2-
--------------------------------------------------------------
--------------------------------------------------------------
--------------------------------------------------------------
--------------------------------------------------------------

Riff 1:
-2-2--3-3--0-0--2-2-
-3-3--3-3--0-0--2-2-
-4-4--4-4--1-1--3-3-
--------------------
--------------------
--------------------

Riff 2:
------------------------------------------------
------------------------------------------------
-4-4-4--2-2-------------------------------------
-4-4-4--2-2--5-5--5-5-5--2-2-2-2-2---4-4--4-4-4-
-2-2-2--0-0--5-5--5-5-5--2-2-2-2-2---4-4--4-4-4-
-------------3-3--3-3-3--0-0-0-0-0---2-2--2-2-2-

Chorus:
[Guitar 1]
--------------------------------
--------------------------------
(9-9-9)-(6-6-6)---------(4-4-4)-
-9-9-9---6-6-6---4-4-4---4-4-4--
-7-7-7---4-4-4---4-4-4---2-2-2--
-7-7-7---4-4-4---2-2-2---2-2-2--

[Guitar 2]
--------------------------------
--------------------------------
--------(6-6-6)---------(4-4-4)-
-2-2-2---6-6-6---4-4-4---4-4-4--
-2-2-2---4-4-4---4-4-4---2-2-2--
-0-0-0---4-4-4---2-2-2---2-2-2--

Post-Chorus:
[Guitar 1]
------------
------------
------------
------------
------------
-0-0-0--b3b-  ...Just keep playing this and bending that note...

[Guitar 2]
-----------------------------------------------------
-----------------------------------------------------
-----------------------------------------------------
-----------------------------------------------------
-----------------------------------------------------
-(5)(5)(5)(5)-(4)(4)(4)-(3)(3)(3)-(2)(2)-(3)(3)-(4)--

Solo 2:
[Guitar 1]
-2--2-2-2-3-2-0-2-0------------0-0-0-2-0-
--------------------3-3--3-3-3-----------
-----------------------------------------
-----------------------------------------
-----------------------------------------
-----------------------------------------

   
-2--2-2-2-3-2-0-2-0------------0-0-0-2-0-
--------------------3-3--3-3-3-----------
-----------------------------------------
-----------------------------------------
-----------------------------------------
-----------------------------------------

   
-2-3-5--7-9-10--9-10-12-10-12-14-12-14-15-14-12-12-10-
------------------------------------------------------
------------------------------------------------------
------------------------------------------------------
-----------------------------------------------------
------------------------------------------------------

   
-10-9-10-9-7-9-7-5-7-5-2-
-------------------------
-------------------------
-------------------------
-------------------------
-------------------------

[Guitar 2:]
---------------------------------------
-3--3-3-3-5-3-2-3-2-0-0--0-0-0-2-2-3-2-
---------------------------------------
---------------------------------------
---------------------------------------
---------------------------------------

   
---------------------------------------
-3--3-3-3-5-3-2-3-2-0-0--0-0-0-2-2-3-2-
---------------------------------------
---------------------------------------
---------------------------------------
---------------------------------------

   
-----2--3-5-7--5-7-9-7-9-10-9-10-12-10-9-9-7--7-5-7-5-3-5-3-2-3-2--
-3-5--------------------------------------------------------------3
-------------------------------------------------------------------
-------------------------------------------------------------------
-------------------------------------------------------------------
-------------------------------------------------------------------


Lyric/Song Structure:
=====================
---> Play Intro A (x1)
---> Play Intro B (x1)
---> Play Solo 1
---> Play Riff 1 over:
   Today seems like a good day to burn a bridge or two
   The one with the old wood creaking that would burn away right on cue
---> Play Riff 2 over:
   I try to be not like that some people really suck
   Some people need to get the axing chalk it up to bad luck
---> Play Intro B (x1)
---> Play Riff 1 over:
   I know a drugstore cowgirl so afraid of getting bored
   She's always running from something so many things ignored         
---> Play Riff 2 over:
   I might do that stuff if it didn't make me feel like ***
   I'm on some old reality tip some many trips in it
---> Play intro B (x1) 
---> Play Chorus over:
   Beautiful disaster Flyin' down the street again
---> Play Chorus (faster) over: 
   I tried to keep it up
   You wore me out at left me ate up
   Now I wish you all the luck
   You're a butterfly in the wind without a care
   A pretty train crash to me and I can't care
   I do I don't whatever
---> Play Post-chorus (x2)
---> Play Solo 2
---> Pause 
   I know a drugstore cowgirl so afraid of getting bored
   She's always running from something so many things ignored 
--->Play Riff 2 over:
   I try to be not like that but that wouldn't make a good song
   There's nothing to see shows people just move along
---> Play Intro B (x1)
---> Play Chorus over:
   Beautiful disaster Flyin' down the street again
---> Play Chorus (faster) over: 
   I tried to keep it up
   You wore me out at left me ate up
   Now I wish you all the luck
   You're a butterfly in the wind without a care
   A pretty train crash to me and I can't care
   I do I don't whatever
---> Play Post-chorus (x2)

		   
AcordesyTabs.com © 2008 Acordes y Tablaturas para guitarra. Tabs and Chords for guitar. Aviso Legal - Contacto
El uso de este sitio está sujeto a la aceptación de los términos y condiciones (15 usuarios online)