tablaturas, partituras y acordes para guitarra
Busca por banda/artista:
 
y/o título de la canción:
A B C D E F G H I J K L M N O P Q R S T U V W X Y Z 0 1 2 3 4 5 6 7 8 9 / Top 100 tabs
Categorías
Usuarios
usuario:
Darse de alta
password:
Artistas más visitados
Publicidad
TOP acordes y tablaturas de Sum 41


Estás en: Inicio > Letra S > Acordes y tablaturas de Sum 41 > Intro cd chuck
Intro cd chuck
de Sum 41
Puntúa este acorde/tab:      
(0.3/5)
Reportar este acorde/tab
  Añadir a tus favoritos
  Imprimir
Tuning: 1/2 step down 
 
{Guitar 1 (slight distortion for both guitars) 
{   (Ebm)                       (B)               (C#) 
{    Em                          C                 D 
{eb|--------------------------------------------------------| 
{Bb|--------------------------------------------------------| 
{Gb|---------------------------------(b9)-(b9)-(b9)------2--0-----| 
{Db|-----(b9)10-(b9)---------------------(b9)-10-(b9)------0--0--4--| 
{Ab|-7---7--7-7-------(b9)---10--------7--7--7-------------5--| 
{Eb|-0----------------0----0-----8--------------------------| 
{ 
{Guitar 2 
{eb|-----------------------------------------------2--------| 
{Bb|---------------------------------3--5--3-------3-----3--| 
{Gb|-----------------------------4-----------------2-----2--| 
{Db|-----------------------------5-----------------0-----0--| 
{Ab|-----------------------------3--------------------------| 
{Eb|-0------------------------------------------------------| 
 
 
{Guitar 1 
{   (Ebm)                     (B)                 (C#) 
{    Em                        C                   D 
{eb|-----------------------------------------------------------| 
{Bb|-----0-1-0-------0----0------------------------10---8--7---| 
{Gb|-----0-2-0-------X----X--------(b9)-(b9)-(b9)--------7----7--7---| 
{Db|-2---2-2-2-------7----(b9)-------(b9)-10-(b9)--------0----0--0---| 
{Ab|-2---------------(b9)---10-------7--7--7---------------------| 
{Eb|-0---------------0----0----8-------------------------------| 
{ 
{Guitar 2 
{eb|-0---------------0-------------------------------------3---| 
{Bb|-0---------------0-------------3-5-3-----------2-------2---| 
{Gb|-0---------------0---------4-------------------3-------3---| 
{Db|-2---------------2---------5-------------------0-------0---| 
{Ab|-2---------------2---------3-------------------------------| 
{Eb|-0---------------0-----------------------------------------| 
 
Repeat all of the above, and this time add in 
the parts written below where they are needed. 
 
Guitar 3 (Clean) 
eb|------------------------------|-----------------------------| 
Bb|------------------------------|-----------12----------------| 
Gb|-----------(b9)11-(b9)11b12r11----|----9/12------12-(b9)----------| 
Db|---(b9)10-12--------------------|-----------------------------| 
Ab|------------------------------|-----------------------------| 
Eb|------------------------------|-----------------------------| 
 
eb|---------------------|--------------------------------------| 
Bb|---------------------|--------------------------------------| 
Gb|-12	/12---12/14----|-------------(b9)11-(b9)11b12r11----------| 
Db|---------------------|-----(b9)10-12--------------------------| 
Ab|---------------------|--------------------------------------| 
Eb|---------------------|--------------------------------------| 
 
eb|---------------------|--------------------------------------| 
Bb|-------12------------|--------------------------------------| 
Gb|-9/12-----12-(b9)------|-----12	/12---12/14-----------------| 
Db|---------------------|--------------------------------------| 
Ab|---------------------|--------------------------------------| 
Eb|---------------------|--------------------------------------| 
 
End of song 

--------------------------------------------------------------------------------		   
AcordesyTabs.com © 2008 Acordes y Tablaturas para guitarra. Tabs and Chords for guitar. Aviso Legal - Contacto
El uso de este sitio está sujeto a la aceptación de los términos y condiciones (58 usuarios online)