tablaturas, partituras y acordes para guitarra
Busca por banda/artista:
 
y/o título de la canción:
A B C D E F G H I J K L M N O P Q R S T U V W X Y Z 0 1 2 3 4 5 6 7 8 9 / Top 100 tabs
Categorías
Usuarios
usuario:
Darse de alta
password:
Artistas más visitados
Publicidad
TOP acordes y tablaturas de My chemical romance


Estás en: Inicio > Letra M > Acordes y tablaturas de My chemical romance > It's not a fashion statement, it's a deathwish
It's not a fashion statement, it's a deathwish
de My chemical romance
Puntúa este acorde/tab:      
(0.5/5)
Reportar este acorde/tab
  Añadir a tus favoritos
  Imprimir
Intro: 

e|--------------------------------------------------------------------------| 
B|--------------------------------------------------------------------------| 
G|--6-6-6-6-6-6-6-6-6--6-6-6-6-8-(b9)8-6--(b9)(b9)(b9)8-8-8-8-8--6-6-8-6-5-5-5-5-5--| 
D|--x-x-x-x-x-x-x-x-x--x-x-x-x-x-x-x-x--x-x-x-x-x-x-x-x--x-x-x-x-x-x-x-x-x--| 
A|--4-4-4-4-4-4-4-4-4--x-x-x-x-x-x-x-x--x-x-x-x-x-x-x-x--x-x-x-x-x-x-x-x-x--| 
E|---------------------5-5-5-5-5-5-5-5--7-7-7-7-7-7-7-7--4-4-4-4-4-4-4-4-4--| 

e|--------------------------------------------------------------------------| 
B|--------------------------------------------------------------------------| 
G|--6-6-6-6-6-6-6-6-6--6-6-6-6-8-(b9)8-6--(b9)(b9)(b9)8-8-8-8-8---------------------| 
D|--x-x-x-x-x-x-x-x-x--x-x-x-x-x-x-x-x--x-x-x-x-x-x-x-x--6-6-6-6-6-6-6-6-6--| 
A|--4-4-4-4-4-4-4-4-4--x-x-x-x-x-x-x-x--x-x-x-x-x-x-x-x--6-6-6-6-6-6-6-6-6--| 
E|---------------------5-5-5-5-5-5-5-5--7-7-7-7-7-7-7-7--4-4-4-4-4-4-4-4-4--| 
                                                            (palm mute) 
e|--------------------------------------------------------------------------| 
B|--------------------------------------------------------------------------| 
G|-(b9)(b9)(b9)(b9)(b9)(b9)(b9)(b9)(b9)8-(b9)(b9)(b9)(b9)(b9)(b9)(b9)(b9)(b9)11--13-13-13-13-13-13-13-13-13-11--| 
D|-x-x-x-x-x-x-x-x-x-x-x-x-x-x-x-x-x-x-x--x---x--x--x--x--x--x--x--x--x--x--| 
A|-7-7-7-7-7-7-7-7-7-6-7-7-7-7-7-7-7-7-7--(b9)-11-11-11-11-11-11-11-11-11--(b9)-| 
E|--------------------------------------------------------------------------| 

e|--------------------------------------------------------------------------| 
B|--------------------------------------------------------------------------| 
G|-(b9)(b9)(b9)(b9)(b9)(b9)11-11-11--8-8-8--6-6-6-6-6-6-6-6--(b9)(b9)(b9)13-13-13-13/14-13---| 
D|-x-x-x-x-x-x--x--x--x--x-x-x--x-x-x-x-x-x-x-x--x-x-x--x--x--x--x--x--x----| 
A|-7-7-7-7-7-7--(b9)-(b9)-(b9)-6-6-6--4-4-4-4-4-4-4-4--x-x-x-11-11-11-11/12-11---| 
E|-----------------------------------------------(b9)(b9)(b9)---------------------| 

Verse: play twice 

e|--------------------------------------------------------------------------| 
B|--------------------------------------------------------------------------| 
G|-6-6-6-6-6-6-6-6-6-6------------------------------------------------------| 
D|-6-6-6-6-6-6-6-6-6-6--7-7-7-7-7-7-7-7-7-7--(b9)(b9)(b9)(b9)(b9)(b9)(b9)(b9)(b9)(b9)-6-6-6-6-6-| 
A|-4-4-4-4-4-4-4-4-4-4--7-7-7-7-7-7-7-7-7-7--(b9)(b9)(b9)(b9)(b9)(b9)(b9)(b9)(b9)(b9)-6-6-6-6-6-| 
E|----------------------5-5-5-5-5-5-5-5-5-5--7-7-7-7-7-7-7-7-7-7--4-4-4-4-4-| 
("do you remember back when we first met...") 
e|--------------------------------------------------------------------------| 
B|--------------------------------------------------------------------------| 
G|--------------------------------------------------------------------------| 
D|-6-6-6-6-6----------------------------------------------------------------| 
A|-6-6-6-6-6----------------------------------------------------------------| 
E|-4-4-4-4-4----------------------------------------------------------------| 

Verse pt. 2: 

e|--------------------------------------------------------------------------| 
B|--------------------------------------------------------------------------| 
G|--------------------------------------------------------------------------| 
D|-7-7-7-7-7-7-7-7-7-7-7--(b9)(b9)(b9)(b9)(b9)(b9)(b9)(b9)(b9)(b9)(b9)-6-6-6-6-6-6-6-6-6-6-6--7-7-| 
A|-7-7-7-7-7-7-7-7-7-7-7--(b9)(b9)(b9)(b9)(b9)(b9)(b9)(b9)(b9)(b9)(b9)-6-6-6-6-6-6-6-6-6-6-6--7-7-| 
E|-5-5-5-5-5-5-5-5-5-5-5--7-7-7-7-7-7-7-7-7-7-7--4-4-4-4-4-4-4-4-4-4-4--5-5-| 
("the damage you've inflicted...") 
e|--------------------------------------------------------------------------| 
B|--------------------------------------------------------------------------| 
G|--------------------6-6-6-6-6-6-8-8-8-(b9)(b9)(b9)(b9)-4-4-4-4-4-4-8-8-8-(b9)(b9)(b9)(b9)-| 
D|-7-7-7-7-7-7-7-7-7--x-x-x-x-x-x-x-x-x-x-x-x-x--x-x-x-x-x-x-x-x-x-x-x-x-x--| 
A|-7-7-7-7-7-7-7-7-7--4-4-4-4-4-4-6-6-6-7-7-7-7--2-2-2-2-2-2-6-6-6-7-7-7-7--| 
E|-5-5-5-5-5-5-5-5-5--------------------------------------------------------| 
          ("I'm coming back from the dead...") 
e|--------------------------------------------------------------------------| 
B|--------------------------------------------------------------------------| 
G|--------------------------------------------------------------------------| 
D|-6-6-6-6-6-6-6-6-6-6-6-6--6-7-(b9)11-9/11(b9)-7--7-(b9)------------(b9)(b9)(b9)(b9)11--| 
A|-6-6-6-6-6-6-6-6-6-6-6-6--x-x-x--x-x-x--x--7--7-(b9)------------x-x-x-x--x--| 
E|-4-4-4-4-4-4-4-4-4-4-4-4--4-5-7--(b9)7/9-7--5--5-7--pick slide-7-7-7-7--(b9)-| 
                      ("...the life you stole") ("we never got that far...") 

e|--------------------------------------------------------------------------| 
B|--------------------------------------------------------------------------| 
G|--------------------------------------------------------------------------| 
D|-11-11-(b9)11-13-13-13-13-13-14-13-11-(b9)(b9)(b9)(b9)(b9)(b9)(b9)(b9)(b9)(b9)11-11-11-11-11-11-| 
A|--x--x-x--x--x--x--x--x--x--x--x--x-x-x-x-x-x-x-x-x-x-x--x--x--x--x--x--x-| 
E|--(b9)-(b9)7--(b9)11-11-11-11-11/12-11--(b9)7-7-7-7-7-7-7-7-7-7--(b9)-(b9)-(b9)-(b9)-(b9)-(b9)| 
                         ("bright lights that won't kill me now...") 

e|--------------------------------------------------------------------------| 
B|--------------------------------------------------------------------------| 
G|--11-11-11-11-(b9)(b9)(b9)(b9)(b9)(b9)8-8-8-8-8-8-6-6-6-6-6-6-6-6---------------------| 
D|--x--x--x--x--x-x-x-x-x-x-x-x-x-x-x-x-x-x-x-x-x-x-x-x--7-7-7-7-7-7-7-7-7--| 
A|--(b9)-(b9)-(b9)-(b9)-7-7-7-7-7-7-6-6-6-6-6-6-4-4-4-4-4-4-4-4--7-7-7-7-7-7-7-7-7--| 
E|-------------------------------------------------------5-5-5-5-5-5-5-5-5--| 
                                                        ("just you and I..") 

e|---------------------------------------------------------------------------| 
B|---------------------------------------------------------------------------| 
G|-----------------------------------6-6-6-6-6-6-6-6--(b9)(b9)(b9)13-13-13-13/14---| 
D|-7-7-7-7--(b9)(b9)(b9)(b9)(b9)(b9)(b9)(b9)(b9)(b9)(b9)(b9)-x-x-x-x-x-x-x-x--x-x-x--x--x--x--x--x---| 
A|-7-7-7-7--(b9)(b9)(b9)(b9)(b9)(b9)(b9)(b9)(b9)(b9)(b9)(b9)-4-4-4-4-4-4-4-4--x-x-x-11-11-11-11/12---| 
E|-5-5-5-5--7-7-7-7-7-7-7-7-7-7-7-7-------------------(b9)(b9)(b9)-----------------| 
      ("your starless eyes remain...") 
e|--------------------------------------------------------------------------| 
B|--------------------------------------------------------------------------| 
G|-13----------------------------------------------------------------------| 
D|--x------repeat verse-----------------------------------------------------| 
A|-11----------------------------------------------------------------------| 
E|--------------------------------------------------------------------------|		   
AcordesyTabs.com © 2008 Acordes y Tablaturas para guitarra. Tabs and Chords for guitar. Aviso Legal - Contacto
El uso de este sitio está sujeto a la aceptación de los términos y condiciones (36 usuarios online)