tablaturas, partituras y acordes para guitarra
Busca por banda/artista:
 
y/o título de la canción:
A B C D E F G H I J K L M N O P Q R S T U V W X Y Z 0 1 2 3 4 5 6 7 8 9 / Top 100 tabs
Categorías
Usuarios
usuario:
Darse de alta
password:
Artistas más visitados
Publicidad
TOP acordes y tablaturas de Atreyu


Estás en: Inicio > Letra A > Acordes y tablaturas de Atreyu > Her portrait in black
Her portrait in black
de Atreyu
Puntúa este acorde/tab:      
(0.4/5)
Reportar este acorde/tab
  Añadir a tus favoritos
  Imprimir
Tuning: CGCFAD

guitar 1

Intro/ verse 1  (0:10 - 0:41)  "...when you get what your looking for.."
e|--------------------------------------------------------------------------|
B|--------------------------------------------------------------------------|
G|--------------------------------------------------------------------------|
D|------3----33--3-5-7------3----33--3-5-7------5-8--5-88-8-8-7-5-3---------|
A|----5----5---5------5---5----5---5----------------------------------------|
E|--------------------------------------------------------------------------|
             x 3
e|---------------||-------------------------------------------------------|
B|---------------||-------------------------------------------------------|
G|---------------||-------------------------------------------------------|
D|----3--3-------||-------------------------------------------------------|
A|--5------4-5~--||-------------------------------------------------------|
E|---------------||-------------------------------------------------------|


Pre chorus  (0:43 - 1:13)   "..when your full, so full of emotion.."  x 2
e|-----------------------||-------------------------------------------------|
B|-----------------------||-------------------------------------------------|
G|---------------7~---6~-||--------------------------------2----------2-----|
D|------3-5------x~---x~-||------3-5--------3-5--------3-5---3~---3-5---3-|
A|----5-----5----5~---4~-||---5------5~---5-----5~------------------------|
E|-----------------------||-------------------------------------------------|

e|---------------------------------||
B|---------------------------------||
G|---------------------------------||
D|-----55555555---8888--10101010---||
A|-----55555555---8888--10101010---||
E|-----55555555---8888--10101010---||

Chorus       (1:14 - 1:34)      "..can you feel her.."         x 2
e|--------------------------------------------------------------------------|
B|--------------------------------------------------------------------------|
G|--------------------------------------------------------------------------|
D|--8888888888888888-0000000000000000-888888888888888-00000000000000000-----|
A|--8888888888888888-0000000000000000-888888888888888-00000000000000000-----|
E|--8888888888888888-0000000000000000-888888888888888-00000000000000000-----|

bridge  (1:34 - 2:05)
"....shes bleeding out, shes bleeding out..."

e|-----------------------------------------------------------7*-------------|
B|--------------------------------------------------------------------------|
G|--------------------------------------------------------------------------|
D|---1-0-3-1-1-0-3-0-1h3p1--1-0-3-1-1-0-3-0-1h3-11110~----------------------|
A|---1-0-3-1-1-0-3-0-1h3p1--1-0-3-1-1-0-3-0-1h3-11110~----------------------|
E|---1-0-3-1-1-0-3-0-1h3p1--1-0-3-1-1-0-3-0-1h3-11110~----------------------|
 x 4
e|---------------------------------------------------||---------------------|
B|---------------------------------------------------||---------------------|
G|---------------------------------------------------||---------------------|
D|-1-0-3-1-1-0-3-0-1h3p1--1-0-3-1-1-0-3-0-1h3-11110~-||-1111-0000-1111-5555-|
A|-1-0-3-1-1-0-3-0-1h3p1--1-0-3-1-1-0-3-0-1h3-11110~-||-1111-0000-1111-5555-|
E|-1-0-3-1-1-0-3-0-1h3p1--1-0-3-1-1-0-3-0-1h3-11110~-||-1111-0000-1111-5555-|

Chorus x 1   (2:06 - 2:25)

solo   (2:25 - 2:42)
Tazer/wah effect, not quiet sure..E-mail me if u no tht effect
e|------------------------------------------------------------------------(b9)|
B|-------10-11~---10-----------------------------10-11h13--------10-11~-13--|
G|-5/12~------------12br12p10h12--12p10----10h12------------5/12~-----------|
D|--------------------------------------12----------------------------------|
A|--------------------------------------------------------------------------|
E|--------------------------------------------------------------------------|

second bridge   (2:43 - 3:11)              x 2                          x 2
e|----------------------------------------------||---------------------------|
B|----------------------------------------------||---------------------------|
G|----------------------------------------------||-15-15-15-15--14-14-14-14--|
D|-1-0-3-1-1-0-3-0-1h3p1--1-0-3-1-1-0-3-0-1h3p1-||--x--x--x--x---x--x--x--x--|
A|-1-0-3-1-1-0-3-0-1h3p1--1-0-3-1-1-0-3-0-1h3p1-||-13-13-13-13--12-12-12-12--|
E|-1-0-3-1-1-0-3-0-1h3p1--1-0-3-1-1-0-3-0-1h3p1-||---------------------------|

e|--------------------------------------------------------------------------|
B|--------------------------------------------------------------------------|
G|--------------------------------------------------------------------------|
D|-8888888888888888-0000000000000000-1010101010101010-5555555555555555------|
A|-8888888888888888-0000000000000000-1010101010101010-5555555555555555------|
E|-8888888888888888-0000000000000000-1010101010101010-5555555555555555------|

chorus x 2

Outro                 x 2
e|--------------------------||--------------------------------------------|
B|--------------------------||--------------------------------------------|
G|---15--(15)----14--(14)---||--------------------------------------------|
D|----x---(x)-----x-- (x)---||--------------------------------------------|
A|---13--(13)----12--(12)---||--------------------------------------------|
E|--------------------------||--------------------------------------------|

thnx, please contact me if there are ne issues! :)

| /  slide up
|   slide down
| h  hammer-on
| p  pull-off
| ~  vibrato
| +  harmonic
| x  Mute note
===============================================================================

	Print this tab | Mail to a friend | Report bad tab
About | Help | Site Map | Link To Us |		   
AcordesyTabs.com © 2008 Acordes y Tablaturas para guitarra. Tabs and Chords for guitar. Aviso Legal - Contacto
El uso de este sitio está sujeto a la aceptación de los términos y condiciones (15 usuarios online)