tablaturas, partituras y acordes para guitarra
Busca por banda/artista:
 
y/o título de la canción:
A B C D E F G H I J K L M N O P Q R S T U V W X Y Z 0 1 2 3 4 5 6 7 8 9 / Top 100 tabs
Categorías
Usuarios
usuario:
Darse de alta
password:
Artistas más visitados
Publicidad
TOP acordes y tablaturas de Nothingface


Gold Tooth
de Nothingface
Puntúa este acorde/tab:      
(0.4/5)
Reportar este acorde/tab
  Añadir a tus favoritos
  Imprimir
Song: “Goldtooth”
Artist: Nothingface
Album: Everyday Atrocity
Transcribed By: Bryan Bramlett (bryanmb87@aol.com)

Tuning: 1/2 Step Down, Drop D

INTRO:
|-------------------------------------------------------------------|
|-----------------------------------------4-------------------------|
|-4-4-4-4--4-4-4--4-4-4-4--4-4-4--4-4-4-4--4--4-4-4--4-4-4-4--4-4-4-|
|-4-4-4-4--4-4-4--4-4-4-4--4-4-4--4-4-4-4---4-4-4-4--4-4-4-4--4-4-4-|
|-2-2-2-2--2-2-2--2-2-2-2--2-2-2--2-2-2-2-----2-2-2--2-2-2-2--2-2-2-|
|-------------------------------------------------------------------|
PM. . .           . . .           . . .              . . .

INTRO 2:
|------------------------------------------------------------------|
|------------------------------------------------------------------|
|------------------------------------------------------------------|
|---------------------------------------------------------12-12-12-|
|---------------------------------------------------------12-12-12-|
|-9999-0h2-0h2-2h3-9999-0h2-0h2-2h3-9999-0h2-0h2-2h3-9999-12-12-12-|

VERSE:
|------------------------------------------------------------------|
|------------------------------------------------------------------|
|------------------------------------------------------------------|
|---------------------------------------------------------12-12-12-|
|---------------------------------------------------------12-12-12-|
|-9999-0h2-0h2-2h3-9999-0h2-0h2-2h3-9999-0h2-0h2-2h3-9999-12-12-12-|
PM....             ....             ....             ....

VERSE FILL:
|------------------------------------------------------------------|
|------------------------------------------------------------------|
|------------------------------------------------------------------|
|---------------------------------------------------------12-12-12-|
|---------------------------------------------------------12-12-12-|
|-9999-0-2-0-2-2-3-9999-0-2-0-2-2-3-9999-0-2-0-2-2-3-9999-12-12-12-|
PM.... . . . . . . .... . . . . . . .... . . . . . . ....

BRIDGE:
|---------------------------------------------------------|
|---------------------------------------------------------|
|---------------------------------------------------------|
|---------------------------------------------------------|
|-------8--8h11-8--8-8--8h11-8--8-8--8------888-----------|
|-999999-99------99---99------99---99-121212---1010109999-|
PM...... ..      ..   ..      ..   .. ...................

|---------------------------------------------------------|
|---------------------------------------------------------|
|---------------------------------------------------------|
|---------------------------------------------------------|
|-----8-8--8h11-8--8-8--8h11-8--8-8--8------888-----------|
|-9999---99------99---99------99---99-121212---1010109999-|
PM....   ..      ..   ..      ..   .. ...................

CHORUS:
|-----------------------------------------------------|
|-----------------------------------------------------|
|---10-9-10---10-9-10-12-13---10-9-10---10-9-10-------|
|-9-10-9-10-9-10-9-10-12-13-9-10-9-10-9-10-9-10-10-10-|
|-9--8-7--8-9--8-7--8-10-11-9--8-7--8-9--8-7--8-10-10-|
|-9---------9---------------9---------9---------10-10-|
PM  .. .      .. .            .. .      .. .

INTERLUDE:
|----------------------------|
|----------------------------|
|----------------------------|
|----------------------------|
|-8--8-8--8-8--8-8--8-8--8-8-|
|----------------------------|

INTERLUDE 2:
|-----------------------------------------------------------------|
|-----------------------------------------------------------------|
|-----------------------------------------------------------------|
|------------------------------10---------------------------------|
|-9-99-99-99-99-99-99-99-99-999-8-9-99-99-99-99-99-99-99-99-99910-|
|-9-99-99-99-99-99-99-99-99-999---9-99-99-99-99-99-99-99-99-99910-|
PM. .. .. .. .. .. .. .. .. ...   . .. .. .. .. .. .. .. .. ...

INTERLUDE 3:
|----------------------|
|----------------------|
|----------------------|
|----------------------|
|---8-8-8-8-8-8-8-8-8-|
|-9--------------------|

 
		   
AcordesyTabs.com © 2008 Acordes y Tablaturas para guitarra. Tabs and Chords for guitar. Aviso Legal - Contacto
El uso de este sitio está sujeto a la aceptación de los términos y condiciones (34 usuarios online)