tablaturas, partituras y acordes para guitarra
Busca por banda/artista:
 
y/o título de la canción:
A B C D E F G H I J K L M N O P Q R S T U V W X Y Z 0 1 2 3 4 5 6 7 8 9 / Top 100 tabs
Categorías
Usuarios
usuario:
Darse de alta
password:
Artistas más visitados
Publicidad
TOP acordes y tablaturas de Bowser castle - temas diversos


Super mario kart
de Bowser castle - temas diversos
Puntúa este acorde/tab:      
(0.3/5)
Reportar este acorde/tab
  Añadir a tus favoritos
  Imprimir
Intro:                                                                        
E||--------------------|--------7--12--17--1(b9)-20----|------------------|
B||--------------------|-----------------------1(b9)---|------------------|
G||--------------------|-----1-----------------18----|------------------|
D||--------------------|--1--------------------------|------------------|
A||----------------1---|-----------------------------|------------------|
E||------------0-------|-----------------------------|------------------|

Guitar 1:
E||------------------|------------------|------------------|
B||------------------|------------------|------------------|
G||------------------|------------------|------------------|
D||------------------|------------------|------------------|
A||------------------|------------------|------------------|
E||------------------|------------------|------------------|
                                                               
--------------------|--------------------|--------------------|
--------------------|--------------------|--------------------|
--------------------|--------------------|--------------------|
--------------------|--------------------|--------------------|
--2--------1--------|--0-----------------|--2--------1--------|
--------------------|-----------4--------|--------------------|
                                                            
--------------------|--------------------|--------------------|
--------------------|--------------------|--------------------|
--------------------|--------------------|--------------------|
--------------------|--------------------|--------------------|
--0-----------------|--2--------1--------|--0-----------------|
-----------4--------|--------------------|-----------4--------|
                                                             
--------------------|--------------------|--------------------|
--------------------|--------------------|--------------------|
--------------------|--------------------|--------------------|
--------------------|--------------------|--------------------|
--2--------1--------|--0-----------------|--2--------1--------|
--------------------|-----------4--------|--------------------|
                                                               
--------------------|--------------------|--------------------|
--------------------|--------------------|--------------------|
--------------------|--------------------|--------------------|
--------------------|--------------------|--------------------|
--0-----------------|--2--------1--------|--0-----------------|
-----------4--------|--------------------|-----------4--------|
                                                            
------------------|--------------------|--------------------|
------------------|--------------------|--------------------|
------------------|--------------------|--------------------|
------------------|--------------------|--------------------|
------------------|--2--------1--------|--0-----------------|
------------------|--------------------|-----------4--------|
                                                             
--------------------|--------------------|--------------------|
--------------------|--------------------|--------------------|
--------------------|--------------------|--------------------|
--------------------|--------------------|--------------------|
--2--------1--------|--0-----------------|--2--------1--------|
--------------------|-----------4--------|--------------------|
                                                             
--------------------|--------------------|--------------------|
--------------------|--------------------|--------------------|
--------------------|--------------------|--------------------|
--------------------|--------------------|--------------------|
--0-----------------|--2--------1--------|--0-----------------|
-----------4--------|--------------------|-----------4--------|
                                                               
--------------------|--------------------|--------------------|
--------------------|--------------------|--------------------|
--------------------|--------------------|--------------------|
--------------------|--------------------|--------------------|
--2--------1--------|--0-----------------|--2--------1--------|
--------------------|-----------4--------|--------------------|
                                                                              
--------------------|------------------|------------------|------------------||
--------------------|------------------|------------------|------------------||
--------------------|------------------|------------------|------------------||
--------------------|------------------|------------------|------------------||
--0-----------------|------------------|------------------|------------------||
-----------4--------|------------------|------------------|------------------||

Guitar 2:
------------------|------------------|------------------|---------------------|
------------------|------------------|------------------|------3----2---------|
------------------|------------------|------------------|------------------0--|
------------------|------------------|------------------|---------------------|
------------------|------------------|------------------|---------------------|
------------------|------------------|------------------|---------------------|
                                                           
------------------|------------------4--|----3--2------------|
------------------|------4----3---------|--------------------|
------------------|---------------------|--------------------|
------------------|---------------------|--------------------|
------------------|---------------------|--------------------|
------------------|---------------------|--------------------|
                                                               
---------------------|------------------|------------------4--|
------3----2---------|------------------|------4----3---------|
------------------0--|------------------|---------------------|
---------------------|------------------|---------------------|
---------------------|------------------|---------------------|
---------------------|------------------|---------------------|
                                                           
----3--2------------|---------------------|------------------|
--------------------|------4----3---------|------------------|
--------------------|------------------1--|------------------|
--------------------|---------------------|------------------|
--------------------|---------------------|------------------|
--------------------|---------------------|------------------|
                                                              
------4----3---------|------------------|---------------------|
------------------0--|------------------|------4----3---------|
---------------------|------------------|---------------------|
---------------------|------------------|------------------3--|
---------------------|------------------|---------------------|
---------------------|------------------|---------------------|
                                                                               
------------------|------2----1---------|------------------|------------------|
------------------|---------------------|------------------|------------------|
------------------|------------------1--|------------------|------------------|
------------------|---------------------|------------------|------------------|
------------------|---------------------|------------------|------------------|
------------------|---------------------|------------------|------------------|
                                                             
---------------------|------------------|------------------4--|
------3----2---------|------------------|------4----3---------|
------------------0--|------------------|---------------------|
---------------------|------------------|---------------------|
---------------------|------------------|---------------------|
---------------------|------------------|---------------------|
                                                             
----3--2------------|---------------------|------------------|
--------------------|------3----2---------|------------------|
--------------------|------------------0--|------------------|
--------------------|---------------------|------------------|
--------------------|---------------------|------------------|
--------------------|---------------------|------------------|
                                                                
------------------4--|----3--2------------|---------------------|
------4----3---------|--------------------|------4----3---------|
---------------------|--------------------|------------------1--|
---------------------|--------------------|---------------------|
---------------------|--------------------|---------------------|
---------------------|--------------------|---------------------|
                                                           
------------------|------4----3---------|------------------|
------------------|------------------0--|------------------|
------------------|---------------------|------------------|
------------------|---------------------|------------------|
------------------|---------------------|------------------|
------------------|---------------------|------------------|
                                                              
---------------------|------------------|------2----1---------|
------4----3---------|------------------|---------------------|
---------------------|------------------|------------------1--|
------------------3--|------------------|---------------------|
---------------------|------------------|---------------------|
---------------------|------------------|---------------------|
                                      
------------------|------------------||
------------------|------------------||
------------------|------------------||
------------------|------------------||
------------------|------------------||
------------------|------------------||		   
AcordesyTabs.com © 2008 Acordes y Tablaturas para guitarra. Tabs and Chords for guitar. Aviso Legal - Contacto
El uso de este sitio está sujeto a la aceptación de los términos y condiciones (33 usuarios online)