tablaturas, partituras y acordes para guitarra
Busca por banda/artista:
 
y/o título de la canción:
A B C D E F G H I J K L M N O P Q R S T U V W X Y Z 0 1 2 3 4 5 6 7 8 9 / Top 100 tabs
Categorías
Usuarios
usuario:
Darse de alta
password:
Artistas más visitados
Publicidad
TOP acordes y tablaturas de Sum 41


Estás en: Inicio > Letra S > Acordes y tablaturas de Sum 41 > Walking disaster
Walking disaster
de Sum 41
Puntúa este acorde/tab:      
(0.4/5)
Reportar este acorde/tab
  Añadir a tus favoritos
  Imprimir
Gtr.Legends:
b - bend
/ - slide
x - dead string
~ - let it ring
. - palm muting

Gtr.Tuning:Standard(Normal)

Intro
e|-77777777777777---|
B|-00000000000000---|
G|-xxxxxxxxxxxxxx---|
D|-9999999999999(b9)--|
A|-xxxxxxxxxxxxxx---|
E|-xxxxxxxxxxxxxx---|

Gtr.Enters:
e|-----------------|
B|-16------16------|
G|----16------16---| 
D|-----------------|
A|-----------------|
E|-----------------|

Verse 1:I haven't been home...
Gtr.1
e|------------------------|
B|------------------------|
G|------------------------| 2x
D|-4~--4~---4-6~---6-2~---|
A|-2~--4~---2-4~---6-2~---|
E|-2~--2~---2-4~---4-0~---|

Gtr.2
e|--------------------|
B|--------------------|
G|-4444444444444444---|
D|-xxxxxxxxxxxxxxxx---|
A|-2222222222222222---|
E|--------------------|

I never know....                   The cities buried...
e|-----------------------------------------------------------|
B|-----------------------------------------------------------|
G|-----------------------------------------------------------| 
D|-6666-4444-2222222-44444-44444---66666-22222-44444-44444---|
A|-4444-2222-2222222-22222-44444---66666-22222-22222-44444---|
E|-4444-2222-0000000-22222-22222---44444-00000-22222-22222---|

As I fall....
e|--------------7bFeedback---|
B|---------------------------|
G|---------------------------| 
D|-6~---4~---2~--------------|
A|-4~---2~---2~--------------|
E|-4~---2~---0~--------------|

Gtr.1
e|--------------------------------|
B|--------------------------------|
G|-44444444444444444444--444444---|
D|-44444444444444444444--222222---|
A|-22222222222222222222--222222---|
E|-----------------------000000---|

Gtr.2
e|-----------------------------------------------------------------------------|
B|-----------------------------------------------------------------------------|
G|-11--6/8--11--6/8---11--6/8---11--6/8--11111111-13131313-14141414-16161616---|
D|--x--x-x---x--x-x----x--x-x----x--x-x---x-x-x-x-xxxxxxxx-xxxxxxxx-xxxxxxxx---|
A|--(b9)-4/6---(b9)-4/8----(b9)-4/6----(b9)-4/6---(b9)(b9)(b9)(b9)11111111-13131313-14141414---|
E|-----------------------------------------------------------------------------|

                    As the dead and I....
e|--------------------------------------------|
B|--------------------------------------------|
G|-4444444444444444444444444444444444444444---|
D|-xxxxxxxxxxxxxxxxxxxxxxxxxxxxxxxxxxxxxxxx---|
A|-2222222222222222222222222222222222222222---|
E|--------------------------------------------|

Pre-Chorus:And I won't have...
Gtr.1
e|--------------------      ------------------|
B|--------------------      ------------------|
G|--------4444-------- 3x   ---------4444-----|
D|-222222-4444-4444--- Then -99999(b9)-4444-4---|
A|-222222-2222-4444---      -777777--2222-4---|
E|-000000------2222---      --------------2---|
                                          .
Gtr.2 Enters
e|--------------------------------------------|
B|--------------------------------------------|
G|-4-3-4-6-4-3-4444------------------4444-----|
D|-x-x-x-x-x-x-4444-4444-----99999(b9)-4444-4---|
A|-2-1-2-4-2-1-2222-4444-----777777--2222-4---|
E|------------------2222------------------2---|
                                          .

Chorus:Walking Disaster....
Gtr.1
e|-----------------------------------------------|
B|-----------------------------------------------|
G|-44444---------------------44444---------------| 2x
D|-44444-44444-66666-22222---44444-4444-6666-2---|
A|-22222-44444-66666-22222---22222-4444-6666-2---|
E|-------22222-44444-00000---------2222-4444-0---|
                                             . 

Gtr.2
e|------------------------------------------|
B|------------------------------------------|
G|-4444-6666-4444--------4444-6666-4444-----|
D|-xxxx-xxxx-xxxx-2222---xxxx-xxxx-xxxx-2---|
A|-2222-4444-2222-2222---2222-4444-2222-2---|
E|----------------0000------------------0---|
                                        .
You regret you....
e|------------------|
B|------------------|
G|-44444444444444---|
D|-xxxxxxxxxxxxxx---|
A|-22222222222222---|
E|------------------|

Pre-Verse 2:
Gtr.1
e|--------------------------------|
B|--------------------------------|
G|-44444444444444444444--444444---|
D|-44444444444444444444--222222---|
A|-22222222222222222222--222222---|
E|-----------------------000000---|

Gtr.2
Gtr.2
e|-----------------------------------------------------------------------------|
B|-----------------------------------------------------------------------------|
G|-11--6/8--11--6/8---11--6/8---11--6/8--11111111-13131313-14141414-16161616---|
D|--x--x-x---x--x-x----x--x-x----x--x-x---x-x-x-x-xxxxxxxx-xxxxxxxx-xxxxxxxx---|
A|--(b9)-4/6---(b9)-4/8----(b9)-4/6----(b9)-4/6---(b9)(b9)(b9)(b9)11111111-13131313-14141414---|
E|-----------------------------------------------------------------------------|

Verse 2:(And he said)Far as I can tell...
e|---------------------------|
B|---------------------------|
G|-44444---------------------| 2x
D|-44444-44444-66666-22222---|
A|-22222-44444-66666-22222---|
E|-------22222-44444-00000---|
    ....  ....  ....  ....

Repeat Pre-Chorus:

Repeat Chorus:

Bridge:To save me....
e|---------------------------|
B|---------------------------|
G|---------------------------| 6x
D|-6~--4~--2~---4~--6~--2~---| Then
A|-4~--2~--2~---2~--4~--2~---|
E|-4~--2~--0~-----------0~---|

e|----------------------------------------|
B|----------------------------------------|
G|-4444/6666/8888/999(b9)--4444/6666/8888---|
D|-xxxx-xxxx-xxxx-xxxx---xxxx-xxxx-xxxx---|
A|-2222/4444/6666/7777---2222/4444/6666---|
E|----------------------------------------|

Repeat Pre-Chorus:

Repeat Chorus:

Repeat Pre-Verse 2:

Outro:Play Verse 1

End...


Walking Disaster Lyrics:

Verse 1
I havenít been home for a while
Iím sure everythingís the same
Mom and Dad still in denial
And only Jocz to take the blame
Iím sorry Mom but I donít miss you
Father thereís no name you deserve
Iím just a kid with no ambition
Wouldnít come home for the world
I never know what Iíd become
The King of all thatís said and done
Never got insideÖ
The Cities buried in defeat
I walk along these no-name-streets
Waving goodbye to all
As I fall
As the dead and I begin
To bring a bridge of innocent
Satisfaction guaranteed
Iíll kill away Catastrophe
I donít miss you just about
All Ambitions underground
A shallow grave I
Have dug all by myself

Pre-Chorus:
And I wonít have been been gone for so long
And I canít remember whoís wrong
My Innocence is all gone
I pledge Allegiance to a world of disbelieve
Where I belong!

Chorus:
A walking Disaster
The son of a bastard
You regret you made me
Itís too late to save me!

You regret you made me
Itís too late to save me!

Vers 2:
And he said:
Far as I can tell
There are just voices in my head
Am I talking to myself
Cauuse I donít know what Iíve just said

And she said:
Far is where I fell
Maybe Iím better off dead
Am I at the end of nowhere
Whereís this bastard as it gets

And I wonít have been been gone for so long
And I canít remember whoís wrong
My Innocence is all gone
I pledge Allegiance to a world of disbelieve
Where I belong!

A walking Disaster
The son of a bastard
You regret you made me
Itís too late to save me!

Bridge:
To save me, to save meÖ

Refrain:
And I wonít have been been gone for so long
And I canít remember whoís wrong
My Innocence is all gone
I pledge Allegiance to a world of disbelieve
Where I belong!

A walking Disaster
The son of a bastard
You regret you made me
Itís too late to save me!

Outro:
I will be home in a while
You donít have to say a word
I canít wait to see you smile
Wouldnít miss it for the world

I will be home in a while
You donít have to say a word
I canít wait to see you smile
Wouldnít miss it for the world		   
AcordesyTabs.com © 2008 Acordes y Tablaturas para guitarra. Tabs and Chords for guitar. Aviso Legal - Contacto
El uso de este sitio está sujeto a la aceptación de los términos y condiciones (15 usuarios online)