tablaturas, partituras y acordes para guitarra
Busca por banda/artista:
 
y/o título de la canción:
A B C D E F G H I J K L M N O P Q R S T U V W X Y Z 0 1 2 3 4 5 6 7 8 9 / Top 100 tabs
Categorías
Usuarios
usuario:
Darse de alta
password:
Artistas más visitados
Publicidad
TOP acordes y tablaturas de Queens of the stone age


Battery acid
de Queens of the stone age
Puntúa este acorde/tab:      
(0.8/5)
Reportar este acorde/tab
  Añadir a tus favoritos
  Imprimir
Tuning:CFBbEbGC

Still needs some corrections...

Intro
Part 1
Guitar 1
C |-----|
G |-----|
Eb|-6b*-|X5
Bb|-----|
F |-----|
C |-----|
b=bending
*=tremolo (slightly)

Guitar 2
C |---------|
G |---------|
Eb|---------|X4
Bb|-56-67-3-|
F |-34-45-1-|
C |---------|

Part 2
Guitar 1 & Guitar 2
C |----------|
G |----------|
Eb|-6-6-6767-|X4
Bb|-6-6-6767-|
F |-4-4-4545-|
C |----------|

Verse
Part 1
(Make you into dark...)
Guitar 1 & Guitar 2
C |----------|
G |----------|
Eb|-6-6-6767-|X12
Bb|-6-6-6767-|
F |-4-4-4545-|
C |----------|

C |-------------------|
G |-------------------|
Eb|-------------------|X4
Bb|-6-6-6-6-6767-(10)-|
F |-6-6-6-6-6767-(10)-|
C |-4-4-4-4-4545--8---|

C |----------|
G |----------|
Eb|-6-6-6767-|X12
Bb|-6-6-6767-|
F |-4-4-4545-|
C |----------|

C |-------------------|
G |-------------------|
Eb|-------------------|X4
Bb|-6-6-6-6-6767-(10)-|
F |-6-6-6-6-6767-(10)-|
C |-4-4-4-4-4545--8---|

Part 2
Guitar 1
C |----------|
G |----------|
Eb|-6-6-6767-|X4
Bb|-6-6-6767-|
F |-4-4-4545-|
C |----------|

Guitar 2 (w/flanger(?) effect)
C |-(b9)-(b9)-(b9)10-(b9)10-|
G |-----------------|
Eb|-----------------|X4
Bb|-----------------|
F |-----------------|
C |-----------------|

Chorus 1 X4
(There is nothing you can say...)
Guitar 1
C |------------------|
G |------------------|
Eb|-----7b*----7-6b*-|
Bb|----6----(6)------|
F |-(5)--------------|
C |------------------|
b=bending
*=tremolo (slighlty)

Guitar 1 & Guitar 2
C |----------|
G |----------|
Eb|-6-6-6767-|X2
Bb|-6-6-6767-|
F |-4-4-4545-|
C |----------|

Interlude
(Battery acid, battery acid..)
Guitar 1
C |------------------------------------------------------------------------|
G |-535-7b-6b-535-8b-7b-535-7b-6b-535-8b-7b-(b9)7-9b-(b9)7-9b-979b979b979b979b-|
Eb|------------------------------------------------------------------------|
Bb|------------------------------------------------------------------------|
F |------------------------------------------------------------------------|
C |------------------------------------------------------------------------|

Guitar 2
C |----------|
G |----------|
Eb|-6-6-6767-|X12
Bb|-6-6-6767-|
F |-4-4-4545-|
C |----------|

C |-------------------|
G |-------------------|
Eb|-------------------|X4
Bb|-6-6-6-6-6767-(10)-|
F |-6-6-6-6-6767-(10)-|
C |-4-4-4-4-4545--8---|

Verse 2
Part 1
(Battery acid in my veins...)
Guitar 1 & Guitar 2
C |----------|
G |----------|
Eb|-6-6-6767-|X12
Bb|-6-6-6767-|
F |-4-4-4545-|
C |----------|

C |-------------------|
G |-------------------|
Eb|-------------------|X4
Bb|-6-6-6-6-6767-(10)-|
F |-6-6-6-6-6767-(10)-|
C |-4-4-4-4-4545--8---|

Part 2
Guitar 1
C |---------------------------------|
G |-7*r-5*r-3*r-5*r-9*r-7*r-5*r-7*r-|
Eb|---------------------------------|X4
Bb|---------------------------------|
F |---------------------------------|
C |---------------------------------|
*= tremolo
r= let ring

Guitar 2
C |----------|
G |----------|
Eb|-6-6-6767-|X12
Bb|-6-6-6767-|
F |-4-4-4545-|
C |----------|

C |-------------------|
G |-------------------|
Eb|-------------------|X4
Bb|-6-6-6-6-6767-(10)-|
F |-6-6-6-6-6767-(10)-|
C |-4-4-4-4-4545--8---|

Chorus 2 X4
(There is nothing you can say...)
Guitar 1
C |------------------|
G |------------------|
Eb|-----7b*----7-6b*-|
Bb|----6----(6)------|
F |-(5)--------------|
C |------------------|
b=bending
*=tremolo (slighlty)

Guitar 1 & Guitar 2
C |----------|
G |----------|
Eb|-6-6-6767-|X2
Bb|-6-6-6767-|
F |-4-4-4545-|
C |----------|

Outro
(Battery acid, battery acid...)
Guitar 1 & Guitar 2
C |----------|
G |----------|
Eb|-6-6-6767-|X12
Bb|-6-6-6767-|
F |-4-4-4545-|
C |----------|		   
AcordesyTabs.com © 2008 Acordes y Tablaturas para guitarra. Tabs and Chords for guitar. Aviso Legal - Contacto
El uso de este sitio está sujeto a la aceptación de los términos y condiciones (16 usuarios online)