tablaturas, partituras y acordes para guitarra
Busca por banda/artista:
 
y/o título de la canción:
A B C D E F G H I J K L M N O P Q R S T U V W X Y Z 0 1 2 3 4 5 6 7 8 9 / Top 100 tabs
Categorías
Usuarios
usuario:
Darse de alta
password:
Artistas más visitados
Publicidad
TOP acordes y tablaturas de Aquatic ambiance - temas diversos


Donkey kong country
de Aquatic ambiance - temas diversos
Puntúa este acorde/tab:      
(0.3/5)
Reportar este acorde/tab
  Añadir a tus favoritos
  Imprimir
Guitar 1:
E||--10--11----------10--11----------10--11----------10--11----------|
B||----------11--------------11--------------11--------------11------|
G||--------------12--------------12--------------12--------------12--|
D||------------------------------------------------------------------|
A||------------------------------------------------------------------|
E||------------------------------------------------------------------|
                                                               
--10--11----------10--11----------10--11----------10--11----------|
----------11--------------11--------------11--------------11------|
--------------12--------------12--------------12--------------12--|
------------------------------------------------------------------|
------------------------------------------------------------------|
------------------------------------------------------------------|
                                                   
------------------------------8--6--------4--3--------|
--13--11----------(b9)-8-----------------6--------4-----|
--------------10--------8--5--------8--------------5--|
----------13------------------------------------------|
------------------------------------------------------|
------------------------------------------------------|
                                                                      
--8--6--------4--3--------8--6--------4--3--------|------------------|
-----------6--------4--------------6--------4-----|------------------|
--------8--------------5--------8--------------5--|------------------|
--------------------------------------------------|------------------|
--------------------------------------------------|------------------|
--------------------------------------------------|------------------|
                                                                   
--10--11----------10--11----------10--11----------10--11----------|
----------11--------------11--------------11--------------11------|
--------------12--------------12--------------12--------------12--|
------------------------------------------------------------------|
------------------------------------------------------------------|
------------------------------------------------------------------|
                                                                  
--10--11----------10--11----------10--11----------10--11----------|
----------11--------------11--------------11--------------11------|
--------------12--------------12--------------12--------------12--|
------------------------------------------------------------------|
------------------------------------------------------------------|
------------------------------------------------------------------|
                                                      
------------------------------8--6--------4--3--------|
--13--11----------(b9)-8-----------------6--------4-----|
--------------10--------8--5--------8--------------5--|
----------13------------------------------------------|
------------------------------------------------------|
------------------------------------------------------|
                                                   
--8--6--------4--3--------8--6--------4--3--------|
-----------6--------4--------------6--------4-----|
--------8--------------5--------8--------------5--|
--------------------------------------------------|
--------------------------------------------------|
--------------------------------------------------|
                                                   
--4--3--6--3--4--3--------4--3--6--3--4--3--------|
--------------------1--4--------------------1--4--|
--------------------------------------------------|
--------------------------------------------------|
--------------------------------------------------|
--------------------------------------------------|
                                                   
--4--3--6--3--4--3--------4--3--6--3--4--3--------|
--------------------1--4--------------------1--4--|
--------------------------------------------------|
--------------------------------------------------|
--------------------------------------------------|
--------------------------------------------------|
                                                       
--11--10-----6--8--6-----3--11--10-----6--8--6-----3--|
----------8-----------6-------------8-----------6-----|
------------------------------------------------------|
------------------------------------------------------|
------------------------------------------------------|
------------------------------------------------------|
                                                                     
--11--10-----6--8--6-----3--11--10-----6--8--6-----|------------------|
----------8-----------6-------------8-----------6--|------------------|
---------------------------------------------------|------------------|
---------------------------------------------------|------------------|
---------------------------------------------------|------------------|
---------------------------------------------------|------------------|

                                                                  
----16-15-16--15-16---15--------|----16-15-16--15-18---16-15---13--|
-------------------------13-----|----------------------------------|
--------------------------------|----------------------------------|
--------------------------------|----------------------------------|
--------------------------------|----------------------------------|
--------------------------------|----------------------------------|
                                                                       
------------------|------------------|----16-15-16--15-16---15--------|
------------------|------------------|-------------------------13-----|
------------------|------------------|--------------------------------|
------------------|------------------|--------------------------------|
------------------|------------------|--------------------------------|
------------------|------------------|--------------------------------|
                                                                         
----16-15-16--15-18---16-15---13--|------------------|------------------||
----------------------------------|------------------|------------------||
----------------------------------|------------------|------------------||
----------------------------------|------------------|------------------||
----------------------------------|------------------|------------------||
----------------------------------|------------------|------------------||

Guitar 2:
E||---10--11----------10--11----------10--11----------10--11-----|
B||-----------11--------------11--------------11--------------11-|
G||---------------12--------------12--------------12-------------|
D||--------------------------------------------------------------|
A||--------------------------------------------------------------|
E||--------------------------------------------------------------|
                                                                
-------10--11----------10--11----------10--11----------10--11-----|
---------------11--------------11--------------11--------------11-|
---12--------------12--------------12--------------12-------------|
------------------------------------------------------------------|
------------------------------------------------------------------|
------------------------------------------------------------------|
                                                        
-----------------------------------8--6--------4--3----|
-------13--11----------(b9)-8-----------------6--------4-|
---12--------------10--------8--5--------8-------------|
---------------13--------------------------------------|
-------------------------------------------------------|
-------------------------------------------------------|
                                                                       
------8--6--------4--3--------8--6--------4--3----|--------------------|
---------------6--------4--------------6--------4-|--------------------|
---5--------8--------------5--------8-------------|---5----------------|
--------------------------------------------------|--------------------|
--------------------------------------------------|--------------------|
--------------------------------------------------|--------------------|
                                                             
---10--11----------10--11----------10--11----------10--11-----|
-----------11--------------11--------------11--------------11-|
---------------12--------------12--------------12-------------|
--------------------------------------------------------------|
--------------------------------------------------------------|
--------------------------------------------------------------|
                                                                   
-------10--11----------10--11----------10--11----------10--11-----|
---------------11--------------11--------------11--------------11-|
---12--------------12--------------12--------------12-------------|
------------------------------------------------------------------|
------------------------------------------------------------------|
------------------------------------------------------------------|
                                                        
-----------------------------------8--6--------4--3----|
-------13--11----------(b9)-8-----------------6--------4-|
---12--------------10--------8--5--------8-------------|
---------------13--------------------------------------|
-------------------------------------------------------|
-------------------------------------------------------|
                                                   
------8--6--------4--3--------8--6--------4--3----|
---------------6--------4--------------6--------4-|
---5--------8--------------5--------8-------------|
--------------------------------------------------|
--------------------------------------------------|
--------------------------------------------------|
                                                
------4--3--6--3--4--3--------4--3--6--3--4--3----|
------------------------1--4--------------------1-|
---5----------------------------------------------|
--------------------------------------------------|
--------------------------------------------------|
--------------------------------------------------|
                                                  
------4--3--6--3--4--3--------4--3--6--3--4--3----|
---4--------------------1--4--------------------1-|
--------------------------------------------------|
--------------------------------------------------|
--------------------------------------------------|
--------------------------------------------------|
                                                       
------11--10-----6--8--6-----3--11--10-----6--8--6----|
---4----------8-----------6-------------8-----------6-|
------------------------------------------------------|
------------------------------------------------------|
------------------------------------------------------|
------------------------------------------------------|
                                                                          
---3--11--10-----6--8--6-----3--11--10-----6--8--6----|------------------||
--------------8-----------6-------------8-----------6-|------------------||
------------------------------------------------------|------------------||
------------------------------------------------------|------------------||
------------------------------------------------------|------------------||
------------------------------------------------------|------------------||

Guitar 3:
E||--22----------------|------------------|------------------|
B||--20----------------|------------------|------------------|
G||--------------------|------------------|------------------|
D||--------------------|------------------|------------------|
A||--------------------|------------------|------------------|
E||--------------------|------------------|------------------|
                                                                            
------------------|------------------|------------------|--22----------------|
------------------|------------------|------------------|--20----------------|
------------------|------------------|------------------|--------------------|
------------------|------------------|------------------|--------------------|
------------------|------------------|------------------|--------------------|
------------------|------------------|------------------|--------------------|
                                                                            
------------------|------------------|------------------|--18----------------|
------------------|------------------|------------------|--16----------------|
------------------|------------------|------------------|--------------------|
------------------|------------------|------------------|--------------------|
------------------|------------------|------------------|--------------------|
------------------|------------------|------------------|--------------------|
                                                                              
------------------|--18----------------|------------------|--10----------------|
------------------|--18----------------|------------------|--8-----------------|
------------------|--------------------|------------------|--------------------|
------------------|--------------------|------------------|--------------------|
------------------|--------------------|------------------|--------------------|
------------------|--------------------|------------------|--------------------|
                                                                             
------------------|--6----------------|------------------|--10----------------|
------------------|--4----------------|------------------|--8-----------------|
------------------|-------------------|------------------|--------------------|
------------------|-------------------|------------------|--------------------|
------------------|-------------------|------------------|--------------------|
------------------|-------------------|------------------|--------------------|
                                                                              
------------------|--6----------------|------------------|--6----------------|
------------------|--4----------------|------------------|-------------------|
------------------|-------------------|------------------|--5----------------|
------------------|-------------------|------------------|-------------------|
------------------|-------------------|------------------|-------------------|
------------------|-------------------|------------------|-------------------|
                                                                              
------------------|-------------------|------------------|--10----------------|
------------------|--3----------------|------------------|--8-----------------|
------------------|-------------------|------------------|--------------------|
------------------|-------------------|------------------|--------------------|
------------------|-------------------|------------------|--------------------|
------------------|-------------------|------------------|--------------------|
                                                                              
------------------|--6----------------|------------------|--10----------------|
------------------|--4----------------|------------------|--8-----------------|
------------------|-------------------|------------------|--------------------|
------------------|-------------------|------------------|--------------------|
------------------|-------------------|------------------|--------------------|
------------------|-------------------|------------------|--------------------|
                                                                              
------------------|--6----------------|------------------|--6----------------|
------------------|--4----------------|------------------|-------------------|
------------------|-------------------|------------------|--5----------------|
------------------|-------------------|------------------|-------------------|
------------------|-------------------|------------------|-------------------|
------------------|-------------------|------------------|-------------------|
                                                                              
------------------|-------------------|------------------|--10----------------|
------------------|--3----------------|------------------|--8-----------------|
------------------|-------------------|------------------|--------------------|
------------------|-------------------|------------------|--------------------|
------------------|-------------------|------------------|--------------------|
------------------|-------------------|------------------|--------------------|
                                                                               
------------------|--6----------------|------------------|--10----------------|
------------------|--4----------------|------------------|--8-----------------|
------------------|-------------------|------------------|--------------------|
------------------|-------------------|------------------|--------------------|
------------------|-------------------|------------------|--------------------|
------------------|-------------------|------------------|--------------------|
                                                                             
------------------|--6----------------|------------------|--6----------------|
------------------|--4----------------|------------------|-------------------|
------------------|-------------------|------------------|--5----------------|
------------------|-------------------|------------------|-------------------|
------------------|-------------------|------------------|-------------------|
------------------|-------------------|------------------|-------------------|
                                                           
------------------|-------------------|------------------||
------------------|--3----------------|------------------||
------------------|-------------------|------------------||
------------------|-------------------|------------------||
------------------|-------------------|------------------||
------------------|-------------------|------------------||

Guitar 4:
E|--------------------|------------------|------------------|------------------|
B|---20---------------|------------------|------------------|------------------|
G|--------------------|------------------|------------------|------------------|
D|--------------------|------------------|------------------|------------------|
A|--------------------|------------------|------------------|------------------|
E|--------------------|------------------|------------------|------------------|
                                                                          
--22----------------|------------------|------------------|------------------|
--------------------|------------------|------------------|------------------|
--------------------|------------------|------------------|------------------|
--------------------|------------------|------------------|------------------|
--------------------|------------------|------------------|------------------|
--------------------|------------------|------------------|------------------|
                                                           
------------------|------------------|------10--8-----------|
------------------|------------------|------------8---------|
------------------|------------------|----------------------|
------------------|------------------|----------------------|
------------------|------------------|----------------------|
------------------|------------------|----------------------|
                                                                              
----10-8-10--11-13---11-10-------|---------------------|-------6-------------|
-----------------------------11--|------11-------------|---------------------|
---------------------------------|-----------8---------|-----------8---------|
---------------------------------|---------------------|---------------------|
---------------------------------|---------------------|---------------------|
---------------------------------|---------------------|---------------------|
                                                         
------10--8-----------|----10-8-10--11-13---15-18---20--|
------------8---------|---------------------------------|
----------------------|---------------------------------|
----------------------|---------------------------------|
----------------------|---------------------------------|
----------------------|---------------------------------|
                                                                       
--------------------18------|----------------------|------------------|
-------------------------16-|----------------------|------------------|
--20------------------------|------15--------------|------------------|
--------20------------------|-----------13---------|------------------|
-------------18-------------|----------------------|------------------|
----------------------------|----------------------|------------------|
                                                                              
------------------|------------------|------------------|------10--8-----------|
------------------|------------------|------------------|------------8---------|
------------------|------------------|------------------|----------------------|
------------------|------------------|------------------|----------------------|
------------------|------------------|------------------|----------------------|
------------------|------------------|------------------|----------------------|
                                                                              
----10-8-10--11-13---11-10-------|---------------------|-------6-------------|
-----------------------------11--|------11-------------|---------------------|
---------------------------------|-----------8---------|-----------8---------|
---------------------------------|---------------------|---------------------|
---------------------------------|---------------------|---------------------|
---------------------------------|---------------------|---------------------|
                                                         
------10--8-----------|----10-8-10--11-13---15-18---20--|
------------8---------|---------------------------------|
----------------------|---------------------------------|
----------------------|---------------------------------|
----------------------|---------------------------------|
----------------------|---------------------------------|
                                                                       
--------------------18------|----------------------|------------------||
-------------------------16-|----------------------|------------------||
--20------------------------|------15--------------|------------------||
--------20------------------|-----------13---------|------------------||
-------------18-------------|----------------------|------------------||
----------------------------|----------------------|------------------||

Guitar 5:
E|------------------|------------------|--------10-11-18-------18-------18----|
B|------------------|------------------|-----------------15-16----15-16----15-|
G|------------------|------------------|--------------------------------------|
D|------------------|------------------|--------------------------------------|
A|------------------|------------------|--------------------------------------|
E|------------------|------------------|--------------------------------------|
                                                                           
--------------18-------18-------18----|------------------|------------------|
--------15-16----15-16----15-16----15-|------------------|------------------|
--------------------------------------|------------------|------------------|
--------------------------------------|------------------|------------------|
--------------------------------------|------------------|------------------|
--------------------------------------|------------------|------------------|
                                                                  
--16--15--18------16--15------11--16--15--18------16--15------11--|
--------------18----------13------------------18----------13------|
------------------------------------------------------------------|
------------------------------------------------------------------|
------------------------------------------------------------------|
------------------------------------------------------------------|
                                                                   
--16--15--18------16--15------11--16--15--18------16--15------11--|
--------------18----------13------------------18----------13------|
------------------------------------------------------------------|
------------------------------------------------------------------|
------------------------------------------------------------------|
------------------------------------------------------------------|
                                           
--18------18------18------18--------------|
------------------------------------------|
------------------------------------------|
------20------20------20------20----------|
------------------------------------------|
------------------------------------------|
                                                              
--18------18------18------18--------------|------------------|
------------------------------------------|------------------|
------------------------------------------|------------------|
------20------20------20------20----------|------------------|
------------------------------------------|------------------|
------------------------------------------|------------------|
                                                             
------------------|--18------18------18------18--------------|
------------------|------------------------------------------|
------------------|------------------------------------------|
------------------|------20------20------20------20----------|
------------------|------------------------------------------|
------------------|------------------------------------------|
                                           
--18------18------18------18--------------||
------------------------------------------||
------------------------------------------||
------20------20------20------20----------||
------------------------------------------||
------------------------------------------||		   
AcordesyTabs.com © 2008 Acordes y Tablaturas para guitarra. Tabs and Chords for guitar. Aviso Legal - Contacto
El uso de este sitio está sujeto a la aceptación de los términos y condiciones (15 usuarios online)