tablaturas, partituras y acordes para guitarra
Busca por banda/artista:
 
y/o título de la canción:
A B C D E F G H I J K L M N O P Q R S T U V W X Y Z 0 1 2 3 4 5 6 7 8 9 / Top 100 tabs
Categorías
Usuarios
usuario:
Darse de alta
password:
Artistas más visitados
Publicidad
TOP acordes y tablaturas de My chemical romance


Estás en: Inicio > Letra M > Acordes y tablaturas de My chemical romance > I'm not okay (i promise)
I'm not okay (i promise)
de My chemical romance
Puntúa este acorde/tab:      
(1.3/5)
Reportar este acorde/tab
  Añadir a tus favoritos
  Imprimir
Solo

e|----------------------------------------------------------------------------|
B|---------------------------------------------------------------------------|
G|16b(18)-16b(18)-16b(18)--16-14-13-14-13----13-14-16-16b(18)-16b(18)|
D|----------------------------------------14---------------------------------/
A|---------------------------------------------------------------------------|
E|---------------------------------------------------------------------------|

e|-----------------------------------------------------------12b(14)-12-10-12-10-(b9)--|
B|------------------14-------------------------------------------------------|
G|-16b(18)-16-14-16---14---14-13-14-16-14-13-14-16---------------------------|
D|---------------------------------------------------------------------------|
A|---------------------------------------------------------------------------|
E|---------------------------------------------------------------------------|

e|-10-(b9)9b(10)-7~--------------------------------10-13-10--------------------|
B|------------------------------------------10-13--------13-10~--------------|
G|-------------------------------------10-12---------------------------------|
D|--------------------------------10-12--------------------------------------|
A|-------------------------/10-12--------------------------------------------|
E|---------------------------------------------------------------------------|		   
AcordesyTabs.com © 2008 Acordes y Tablaturas para guitarra. Tabs and Chords for guitar. Aviso Legal - Contacto
El uso de este sitio está sujeto a la aceptación de los términos y condiciones (36 usuarios online)