tablaturas, partituras y acordes para guitarra
Busca por banda/artista:
 
y/o título de la canción:
A B C D E F G H I J K L M N O P Q R S T U V W X Y Z 0 1 2 3 4 5 6 7 8 9 / Top 100 tabs
Categorías
Usuarios
usuario:
Darse de alta
password:
Artistas más visitados
Publicidad
TOP acordes y tablaturas de Kittie


Estás en: Inicio > Letra K > Acordes y tablaturas de Kittie > Do you think i'm a whore
Do you think i'm a whore
de Kittie
Puntúa este acorde/tab:      
(0.5/5)
Reportar este acorde/tab
  Añadir a tus favoritos
  Imprimir
6=C  3=F 
 5=G  2=A 
 4=C  1=D 
  
 Guitars Tacet For 3 bars 
  
   Verse                  
 d|-----------------------|----------------------------------------------------| 
 A|-----------------------|----------------------------------------------------| 
 F|-----------------------|----------------------------------------------------| 
 C|-2-2-2-3-0-2-2-2-3-2-0-|----------------------------------------------------| 
 G|-2-2-2-3-0-2-2-2-3-2-0-|----------------------------------------------------| 
 C|-2-2-2-3-0-2-2-2-3-2-0-|----------------------------------------------------| 
  
  Chorus "Like You...Like Me" 
  
 d|---------------------------------------------------------------------------| 
 A|---------------------------------------------------------------------------| 
 F|---------------------------------------------------------------------------| 
 C|---------------------------------------------------------------------------| 
 G|---------------------------------------------------------------------------| 
 C|-3p0-3p0-2h3-0-3p0-3p0-2h3-------------------------------------------------| 

--------------------------------------------------------------------------------		   
AcordesyTabs.com © 2008 Acordes y Tablaturas para guitarra. Tabs and Chords for guitar. Aviso Legal - Contacto
El uso de este sitio está sujeto a la aceptación de los términos y condiciones (20 usuarios online)