tablaturas, partituras y acordes para guitarra
Busca por banda/artista:
 
y/o título de la canción:
A B C D E F G H I J K L M N O P Q R S T U V W X Y Z 0 1 2 3 4 5 6 7 8 9 / Top 100 tabs
Categorías
Usuarios
usuario:
Darse de alta
password:
Artistas más visitados
Publicidad
TOP acordes y tablaturas de Jack johnson


Bubble toes
de Jack johnson
Puntúa este acorde/tab:      
(0.3/5)
Reportar este acorde/tab
  Añadir a tus favoritos
  Imprimir
Tuning:Standard

Intro Part 1

e | --------------------------------------- | 
B | --------------------------------------- | 
G | --------------------------------------- |  (x2)
D | -7-x-7---x---(b9)x-(b9)---x---------------- |  
A | -5-x-5-7-x-7-7-x-7-10-x-10------------- |   
E | -------5---5--------8----8------------- | 

Intro Part 2

e | --------------------------------------- | 
B | --------------------------------------- | 
G | --------------------------------------- | 
D | ---x-----x-----x----------------------- | 
A | -5-x-5-7-x-7-8-x-8-7------------------- | 
E | -3---3-3---3-3---3-3------------------- | 

Verse and chorus
   d   
e | -3---3-3-x-3--3—-3-3-3--3---3-3--5-5---5-5-5------- |  d=Downstroke
B | -3---3-3-x-3--3--3-3-3--5---5-5--7-7---7-7-7------- | 
G | -4---4-4-x-4--4--4-4-4--5---5-5--7-7---7-7-7------- | 
D | -5---5-5-x-5--5--5-5-5--5---5-5--7-7---7-7-7------- | 
A | -5---5-5-x-5--5--5-5-5--3---3-3--5-5---5-5-5------- | 
E | -3---3-3-x-3--3--3-3-3--3---3-3--5-5---5-5-5------- | 

Solo
e | --------------------------------------------------- | 
B | --------------------------------------------------- | 
G | --------------------------------------------------- | 
D | ------------2--22-4-2-0---------------------------- | 
A | ----2-3-5---------------3-------------------------- | 
E | -3-3------3---------------------------------------- |  		   
AcordesyTabs.com © 2008 Acordes y Tablaturas para guitarra. Tabs and Chords for guitar. Aviso Legal - Contacto
El uso de este sitio está sujeto a la aceptación de los términos y condiciones (57 usuarios online)