tablaturas, partituras y acordes para guitarra
Busca por banda/artista:
 
y/o título de la canción:
A B C D E F G H I J K L M N O P Q R S T U V W X Y Z 0 1 2 3 4 5 6 7 8 9 / Top 100 tabs
Categorías
Usuarios
usuario:
Darse de alta
password:
Artistas más visitados
Publicidad
TOP acordes y tablaturas de Arch enemy


Estás en: Inicio > Letra A > Acordes y tablaturas de Arch enemy > My apocalypse
My apocalypse
de Arch enemy
Puntúa este acorde/tab:      
(0.4/5)
Reportar este acorde/tab
  Añadir a tus favoritos
  Imprimir
Intro/Chorus 
G|---------------------------------------------| 
D|----------------------44-44-44-44------------| 
A|-33----33----33---------------------|    x 4-| 
E|---------------------------------------------| 
 
G|----------------| 
D|----------------| 
A|-5-5--555-------| 
E|----------------| 
 
Verse 
G|---------------------| 
D|---------------------| 
A|-B4--5-5-5-5-|   x 4-| 
E|---------------------| 
 
G|---------------------| 
D|---------------------| 
A|-B4--5-5-5-5-|   x 4-| 
E|---------------------| 
 
 
G|-----------------------------------------| 
D|-----------------------------------------| 
A|-6--6-6-66-6--6--10-10-10-10-|  X 2------| 
E|-----------------------------------------| 
 
G|-----------------------------------------| 
D|-----------------------------------------| 
A|-6--6-6----6--6--10-10-10-10--|  X 2-----| 
E|----------6------------------------------| 
 
 
G|---------------------------------------------| 
D|----------------------44-44-44-44------------| 
A|-33----33----33---------------------|    x 2-| 
E|---------------------------------------------| 
 
Verse 
G|---------------------| 
D|---------------------| 
A|-B4--5-5-5-5-|   x 4-| 
E|---------------------| 
 
G|---------------------| 
D|---------------------| 
A|-B4--5-5-5-5-|   x 4-| 
E|---------------------| 
 
 
G|-----------------------------------------| 
D|-----------------------------------------| 
A|-6--6-6-66-6--6--10-10-10-10-|  X 2------| 
E|-----------------------------------------| 
 
G|-----------------------------------------| 
D|-----------------------------------------| 
A|-6--6-6----6--6--10-10-10-10--|  X 2-----| 
E|----------6------------------------------| 
 
 
G|---------------------------------------------| 
D|----------------------44-44-44-44------------| 
A|-33----33----33---------------------|    x 4-| 
E|---------------------------------------------| 
 
Breakdown 
G|-------------------------------------------------| 
D|---------------------1/10----10-8----------------| 
A|-3----3~----------------------------10-----------| 
E|--------------1/8------------------------11------| 
 
G|------------------| 
D|------------------| 
A|------------------| 
E|-8--6--4--6-------| 
 
G|-------------------------| 
D|-------------------------| 
A|------------------6-8----| 
E|-8--6--4--6-6------------| 
 
G|---------------------------| 
D|------------------8--------| 
A|---------------------------| 
E|-8--6--4--6--6----8--------| 
 
G|--------------------------------| 
D|---------------10-8-------------| 
A|---------------------10---------| 
E|-8--6--4--6------------11-------| 
 
G|------------------| 
D|------------------| 
A|------------------| 
E|-8--6--4--6-------| 
 
G|--------------------------| 
D|--------------------------| 
A|------------------6-8-----| 
E|-8--6--4--6-6-------------| 
G|--------------------------| 
D|-------------------8------| 
A|--------------------------| 
E|-8--6--4--6-6-----8-------| 
 
G|--------------------------------| 
D|---------------10-8-------------| 
A|---------------------10---------| 
E|-8--6--4--6------------11-------| 
 
Guitar Solo Fills 
G|--------------------------------| 
D|--------------------------------| 
A|----------------------------3---| 
E|-8-8-6-6-4-4-6-6--1-4-----------| 
 
G|---------------------------------| 
D|---------------------------------| 
A|-3-3-------------------8-10------| 
E|------6-6-4-4--8-11--------------| 
 
G|------------------------| 
D|------------------------| 
A|------------------------| 
E|-8-8-6-6-4-4-6-6--------| 
 
G|------------------------------| 
D|------------------------------| 
A|------6-6---------------------| 
E|-8-8------4-4--1-3-4-6--------| 
 
G|--------------------------------| 
D|--------------------------------| 
A|----------------------------3---| 
E|-8-8-6-6-4-4-6-6--1-4-----------| 
 
G|--------------------------------| 
D|--------------------8-----------| 
A|-3-3-----------------8----------| 
E|------6-6-4-4--6-----6----------| 
 
G|------------------------------| 
D|------------------------------| 
A|------6-6---------------------| 
E|-8-8------4-4--1-3-4-6--------| 
 
G|------------------------| 
D|------------------------| 
A|------------------------| 
E|-8-8-6-6-4-4-6-6--------| 
 
Interlude 
G|-----------------------------------------------------------------------| 
D|--------------------------------------------------------1-1-1----------| 
A|-33333333----------------------------13333333----------|           X 4-| 
E|---------------1111111--34444444---------------------------------------| 
last time 
G|--------| 
D|--------| 
A|--3~----| 
E|--------| 
 
G|---------------------------------------------| 
D|----------------------44-44-44-44------------| 
A|-33----33----33---------------------|    x 6-| 
E|---------------------------------------------| 
 
Outro 
G|---------------------------------------------| 
D|-44-44-44-44-44-44-44-44-44-4----------------| 
A|---------------------------------------------| 
E|---------------------------------------------|		   
AcordesyTabs.com © 2008 Acordes y Tablaturas para guitarra. Tabs and Chords for guitar. Aviso Legal - Contacto
El uso de este sitio está sujeto a la aceptación de los términos y condiciones (20 usuarios online)