tablaturas, partituras y acordes para guitarra
Busca por banda/artista:
 
y/o título de la canción:
A B C D E F G H I J K L M N O P Q R S T U V W X Y Z 0 1 2 3 4 5 6 7 8 9 / Top 100 tabs
Categorías
Usuarios
usuario:
Darse de alta
password:
Artistas más visitados
Publicidad
TOP acordes y tablaturas de Metallica


I disapear
de Metallica
Puntúa este acorde/tab:      
(0.2/5)
Reportar este acorde/tab
  Añadir a tus favoritos
  Imprimir
Tune Down 1/2 Step down 
 
 
Intro                                          
 
|---------------------|----------|     Mid Intro     |--------------| 
|---------------------|----------|                   |--------------| 
|---------------------|----------|                   |--------------| 
|-0-00-0-00-0-00-0-00-|-7~-5-0-7~|                   |-5-0-7~-5-0-7~| 
 
Fill 1 
 
|-----------------------------------------| 
|-----------------------------------------| 
|-----------------------------------------| 
|0-0-0-0-5-0-0-0-0-5-0-0-0-0-5-0-0-0-0-3-3| 
 
Verse 
|-----------------------------| 
|-----------------------------| 
|-7--7-7-7--7-7-7--7-7-7-----7| 
|-0--0-0-0--0-0-0--0-0-0-3-3-0| 
 
Bridge 
 
|---------------------------------| 
|---------------------------------| 
|---------------10----------------| 
|-3-3-2/5-5/7----10-12-------9| 
 
Fill 2 
 
|------| 
|------| 
|------| 
|-3-2-1| 
 
Chorus                           
 
|-----------------------------------|-----------------------------------| 
|-----------------------------------|-----------------------------------| 
|-----------------------------------|-----------------------10----12----| 
|2-2-3-3/7-8-8-8-8-8-8-5-5-5-5-0|2-2-3-3/7-8-8-8-8-8-8-8--8/10--10-5| 
 
 
Pre-Solo 
|------------|--------| 
|------------|--------| 
|-7-77-77-77-|--------| 
|-0-00-00-00-|7-8-5-3-| 
 
Solo 
|----------------------------------------------------------| 
|----------------------------------------------------------| 
|------------------------------------7p5-5-7p5-5-7p5-7p5-5-| 
|-0-0-0-0-5-5-0-0-0-0-5-5-0-0-0-0-5-5----------------------| 
 
Post-Solo 
|--------------------------------------------------| 
|--------------------------------------------------| 
|--------------------------------------------------| 
|-0-4-0--3-3--0-4-0--3-3--0-4-0--3-3--0-4-0--3-2-1-| 
 
End 
 
|------------| 
|------------| 
|-7-77-77-77-| 
|-0-00-00-00-| 
 
Order: 
 
Intro X1 
Mid Intro X4 
Fill1 X1 
Verse X2 
Bridge X1 
Verse X1 
Fill 2 X1 
Chorus X1 
Fill1 X1 
Verse X2 
Bridge X1 
Verse  X1 
Fill 2 X1 
Chorus X2 
Pre Solo X1 
Solo X2 
Post Solo X2 
Chorus X2 
End X1		   
AcordesyTabs.com © 2008 Acordes y Tablaturas para guitarra. Tabs and Chords for guitar. Aviso Legal - Contacto
El uso de este sitio está sujeto a la aceptación de los términos y condiciones (109 usuarios online)