tablaturas, partituras y acordes para guitarra
Busca por banda/artista:
 
y/o título de la canción:
A B C D E F G H I J K L M N O P Q R S T U V W X Y Z 0 1 2 3 4 5 6 7 8 9 / Top 100 tabs
Categorías
Usuarios
usuario:
Darse de alta
password:
Artistas más visitados
Publicidad
TOP acordes y tablaturas de Hillsong music australia


Salvation is here
de Hillsong music australia
Puntúa este acorde/tab:      
(0.5/5)
Reportar este acorde/tab
  Añadir a tus favoritos
  Imprimir
Tom: B
Intro: B
FAÇAM ESSES ACORDES QUE ESTÃO ESCRITOS CO0MO INTRODUÇÃO DA GUITARRA, O VIOLÃO SEGURA A INTRODUÇÃO
NO "B"
                                                           __ | 
      4ª Casa         5ª            6ª           7ª           | 
E | ------------- | ------------- | ------------- | ------------- |     | 
A | ------------- | ------------- | ------------- | ------------- |     | 
D | ---------/-- | ------------- | ------------- | ------------- |     | 
G | --------- | --- | ------------- | ------------- | ------------- |     | 
B | --------- | --- | ------------- | ------------- | -----3------- |     | 
E | --------- | --- | ------------- | ------------- | -----4------- |     |                                                                                                                        

      4ª Casa         5ª            6ª           7ª           |  
E | ------------- | ------------- | ------------- | ------------- |     | 
A | ------------- | ------------- | ------------- | ------------- |     | 
D | ---------/-- | ------------- | ------------- | ------------- |     | 
G | --------- | --- | ------------- | ------------- | ------------- |     | - 4x
B | --------- | --- | ------------- | ------------- | -----3------- |     | 
E | --------- | --- | ------------- | ------2------- | ------------ |     | 
                                                              | 
      2ª Casa         3ª            4ª           5ª           | 
E | ------------- | ------------- | ------------- | ------------- |     | 
A | ------------- | ------------- | ------------- | ------------- |     | 
D | ------------- | ------------- | -----3------- | ------------- |     | 
G | ------------- | ------2------ | ------------- | ------------- |     | 
B | ---------/-- | ------------- | ------------- | ------------- |     | 
E | --------- | --- | ------------- | ------------- | ------------- |     | 
                                                              | 
                                                           __ | 
Verse 1:
B    G#m          F#4    E
God above all the world in motion
B    G#m         F#4     E
God above all my hopes and fears
B        G#m              F#4       E
And I don't care what the world throws at me now
G#m9      E          B  E  F#  G#m  B  E  F#  G#m
I'm gonna be all right

Verse 2:
B    G#m              F#4  E
Hear the sound of the gene - rations
B     G#m         F#4   E
Making loud their freedom song
B      G#m          F#4        E
All in all that the world would know Your name
G#m9        E
We're gonna be all right

Chorus 1:
         B           E
'Cause I know my God saved the day
       F#      G#m
And I know His word never fails
       B         E               C#m
And I know my God made a way for me
E             B
Salvation is here

Bridge:
C#m             G#m
    Salvation is here
B                E                     C#m
    Salvation is here, and He lives in me
                 G#m
    Salvation is here
B                  E                    C#m
    Salvation that died just to set me free
                 G#m
    Salvation is here
B                 E                     C#m
    Salvation is here, and He lives in me
                    G#m
    Salvation is here
B                    E                    C#m
    'Cause You are alive, and You live in me
                 B
    Salvation is here
E                 F#                  G#m
    Salvation is here and He lives in me
                 B   E
    Salvation is here
                     F#                  G#m
    'Cause You are alive and You live in me

Chorus 2:
  B           E
I know my God saved the day
       F#      G#m
And I know His word never fails
       B         E               C#m
And I know my God made a way for me
           E
It's gonna be alright
         B           E
'Cause I know my God saved the day
       F#      G#m
And I know His word never fails
       B         E               C#m
And I know my God made a way for me
E            G#m  B  E  C#m  G#m  B  E
Salvation is here

Ending:
E            B
Salvation is here
E            F#                   G#m
Salvation is here and He lives in me
             B   E
Salvation is here
                 F#                  G#m
'Cause You are alive and You live in me
              B
Salvation is here 		   
AcordesyTabs.com © 2008 Acordes y Tablaturas para guitarra. Tabs and Chords for guitar. Aviso Legal - Contacto
El uso de este sitio está sujeto a la aceptación de los términos y condiciones (26 usuarios online)