tablaturas, partituras y acordes para guitarra
Busca por banda/artista:
 
y/o título de la canción:
A B C D E F G H I J K L M N O P Q R S T U V W X Y Z 0 1 2 3 4 5 6 7 8 9 / Top 100 tabs
Categorías
Usuarios
usuario:
Darse de alta
password:
Artistas más visitados
Publicidad
TOP acordes y tablaturas de Metallica


Estás en: Inicio > Letra M > Acordes y tablaturas de Metallica > Welcome home (sanitarium)
Welcome home (sanitarium)
de Metallica
Puntúa este acorde/tab:      
(0.4/5)
Reportar este acorde/tab
  Añadir a tus favoritos
  Imprimir
INTRO 
|--------------------|-------------------------------| 
|--==guitar intro==--|-------7----7/5----5h7---------| 
|--------------------|---------------------------7---| 
|--------------------|-------------------------------| 
 
|------------------------| 
|--7----7(b9)--------5h7--| 
|--------------7---------| 
|------------------------| 
 
 
these verse riffs kinda go along with the bass drums or something... 
listen carefully. 
 
VERSE RIFF 1 
|-------------------------------------------| 
|-------------------------------------------| 
|---------3-----3-5----5--------------------| 
|-0-----0----------------5----3----3---5/2--| 
 
VERSE RIFF 2 
|------------------------------------------------------| 
|------------------------------------------------------| 
|---------3-----2--3--5--3--2--------------------------| 
|-0-----0----------------------3--5-----3-----3---2--2-| 
 
VERSE RIFF 3 
|-----------------------------------------------| 
|-----------------------------------------------| 
|---------3-----3-5------5----------------------| 
|-0-----0------------------5-----5--3-----3---5-| 
 
VERSE RIFF 4 
|-------------------------------------------------| 
|-------------------------------------------------| 
|---------3------3-5-----5------------------------| 
|-0-----0------------------5----5---3----3--2---2-| 
 
VERSE RIFF 5 
|-------------------------------------------------------| 
|-------------------------------------------------------| 
|---------3-------2--3--5--3--2-------------------------| 
|-0-----0------------------------3--5--5--5-5-3--3-2--2-| 
 
PREChorus 
|--------------------------------------------------------------| 
|--------------------------------------------------------------| 
|-------2--2--------3--3-----------5--5------------------------| 
|-0--0--------0--0---------0---0---------5--5--5-3--3--3--5--2-| 
 
Chorus 
|--------------------------------------------------------| 
|-----------------------------------0h2p0----------------| 
|-----------------3/2-----3/2-------------3-2-0----------| 
|--0--x-x-3/2-x-x-----x-x-----------------------3-2-3-0--| 
 
|-------------------------------------------------------| 
|-------------------------------------------------------| 
|-------------x-x-3/2-x-x-3/2---2-2-2-2-2-2-3-2---------| 
|--0--x-x-3/2-----------------------------------3-x-1-0-| 
 
|--------------------------------------------------------| 
|-----------------------------------0h2p0----------------| 
|-----------------3/2-----3/2-------------3-2-0----------| 
|--0--x-x-3/2-x-x-----x-x-----------------------3-2-3-0--| 
 
|-----------------------------------------------| 
|-----------------------------------------------| 
|-----------------3/2-----3/2--3----2-------2---| 
|--0--x-x-3/2-x-x-----x-x-----------------------| 
 
Chorus B 
|---------------------------------------------------------------------------| 
|-0h2p0------------------------------------------0h2p0----------------------| 
|-------3-2-0-----------------------3/2-----3/2--------3-2-0----------------| 
|-------------3-2-3-0---x-x-3/2-x-x-----x-x------------------3-2-3-0----(0)-| 
 
RIFF 3 
|-------------------------------------| 
|----------------------------------x2-| 
|-------------------------------------| 
|-0-0-0-0-0-0-0-0-0-0-0-0-0-0-0-0-----| 
 
RIFF 4 
|---------------------------------------------------------------| 
|---------------------------------------------------------------| 
|---------------------------------------------------------------| 
|-5h7--5h7-0-0-0-0-0-0-0-0-0-0-0--5h6--5h6--5h6--5h7--0-0-0-0-0-| 
 
RIFF 5 
|---------------------------------------------------------------| 
|---------------------------------------------------------------| 
|---------------------------------------------------------------| 
|-5h6--5h6-0-0-0-0-0-0-0-0-0-0-0--5h6--5h6--5h6--5h7--0-0-0-0-0-| 
 
RIFF 6 
|-----------------------------------------------------------------------| 
|-----------------------------------------------------------------------| 
|-0--2------------0-2--5--5-------0-2------------0--2--3--3--3--2--2--2-| 
|-------0--0---------------------------1--1-----------------------------| 
 
RIFF 6B 
|------------------------------------| 
|------------------------------------| 
|-0--2---------------0-2--5--5-----5-| 
|-------0--0-----0-------------------| 
 
RIFF 7 
|-------------------------------| 
|-------------------------------| 
|-------------------------------| 
|--0-0-0-0-0-0-0-0-0-0-0-0-/12--| 
 
RIFF 8 
|--------------------------------------------------------------------| 
|--------------------------------------------------------------------| 
|-0--2--------------------0--2--5--5---5-5-5-5---0--2----------------| 
|-------0--0----0-0-0-0--------------------------------1--1--1-1-1-1-| 
 
|-------------------------------------------------------------------------| 
|-------------------------------------------------------------------------| 
|-0--2--3--3---2--2-2-2--2-2-2-2-2-2-2-2---2---0--------------------------| 
|--------------------------------------------------3---2---0----------/7--|		   
AcordesyTabs.com © 2008 Acordes y Tablaturas para guitarra. Tabs and Chords for guitar. Aviso Legal - Contacto
El uso de este sitio está sujeto a la aceptación de los términos y condiciones (28 usuarios online)