tablaturas, partituras y acordes para guitarra
Busca por banda/artista:
 
y/o título de la canción:
A B C D E F G H I J K L M N O P Q R S T U V W X Y Z 0 1 2 3 4 5 6 7 8 9 / Top 100 tabs
Categorías
Usuarios
usuario:
Darse de alta
password:
Artistas más visitados
Publicidad
TOP acordes y tablaturas de Kamelot


Warbird
de Kamelot
Puntúa este acorde/tab:      
(0.7/5)
Reportar este acorde/tab
  Añadir a tus favoritos
  Imprimir
  - shift slide (strike 1st note - slide to 2nd note - strike it, too)  
PM - palm mute
h  - hammer on
p  - pull off
~  - vibrato
a  - accent (emphasize note)
A  - heavy accent
f  - play fast!

Standard tuning
Guitar: distortion (approx. 3/4) 
Fast tempo

Rhythm fig. 1  (Intro)
    
e | ---------------------------------------------------------------------- | 
B | ---------------------------------------------------------------------- | 
G | ---------------------------------------------------------------------- | 
D | --2------------------------------------------------------------------- | 
A | --2---12-12-12-14----12-12-12-14-------------------------------------- | 
E | --0------------------------------------------------------------------- | 

e | ---------------------------------------------------------------------- | 
B | ---------------------------------------------------------------------- | 
G | ---------------------------------------------------------------------- | 
D | --2------------------------------------------------------------------- | 
A | --2---12-12-12-14----15-15-14-12-------------------------------------- | 
E | --0---------------------------------15-15-14-12----------------------- | 

----

Rhythm fig. 2  (Verse)


                  | ---------PM---------- | 
e | ---------------------------------------------------------------------- | 
B | ---------------------------------------------------------------------- | 
G | ---------------------------------------------------------------------- | 
D | --(b9)-(b9)---11---12-12-12-12-12---7-7-7----5--5---10----8--8--8--------- | 
A | --(b9)-(b9)---11---12-12-12-12-12---7-7-7----5--5---10----8--8--8--------- | 
E | --7--7-----(b9)--10-10-10-10-10---5-5-5----3--3----8----6--6--6--------- | 
   
      a     a      f  f  f                a       a    a

                                                    | ---PM--- | 
e | ---------------------------------------------------------------------- | 
B | ---------------------------------------------------------------------- | 
G | ---------------------------------------------------------------------- | 
D | --(b9)-(b9)---11---12--12------------------------------------------------- | 
A | --(b9)-(b9)---11---12--12------------------------------------------------- | 
E | --7--7-----(b9)--10--10-----12(b9)---9~~~~~~~~~~~--7--(b9)-10------------ | 

    a  a          a

----

Rhythm fig. 3  (Bridge)

                                 | --PM-- |       | --PM-- | 
e | ---------------------------------------------------------------------- | 
B | ---------------------------------------------------------------------- | 
G | ---------------------------------------------------------------------- | 
D | --7----(b9)-10-----13--12----14-13-13-13--11-10-10-10------------------- | 
A | --7----(b9)-10-----13--12----14-13-13-13--11-10-10-10------------------- | 
E | --5----7---8-----11--10----12-11-11-11---(b9)-8--8--8------------------- | 
    
    a        A      A   A     A            A  
                        
e | ---------------------------------------------------------------------- | 
B | ---------------------------------------------------------------------- | 
G | ---------------------------------------------------------------------- | 
D | ------------------(b9)--------5---------7---------5--------------------- | 
A | ------------------(b9)--------5---------7---------5--------------------- | 
E | ------------------7---------3---------5---------3--------------------- | 

                    a                   a             

----

Rhythm fig. 4


             | --------PM------ |  
e | ---------------------------------------------------------------------- | 
B | ---------------------------------------------------------------------- | 
G | ---------------------------------------------------------------------- | 
D | -------------------------------(b9)------------------------------------- | 
A | -------------------------------(b9)------------------------------------- | 
E | ----------0-0-3-5-5-5-6-6-6----7-------------------------------------- | 

            f f f f f f f f f

----

Rhythm fig. 5

                                                  | ----------PM-------- | 
e | ---------------------------------------------------------------------- | 
B | ---------------------------------------------------------------------- | 
G | ---------------------------------------------------------------------- | 
D | --3--------------------------------------------10-10-10-10---8-8-8-8-- | 
A | --3--------------------------------------------10-10-10-10---8-8-8-8-- | 
E | --1---------------------------------------------8--8--8--8---6-6-6-6-- | 

                                                  a            a

                                                  | ----------PM-------- | 
e | ---------------------------------------------------------------------- | 
B | ---------------------------------------------------------------------- | 
G | ---------------------------------------------------------------------- | 
D | --3--------------------------------------------10-10-10-10---8-8-8-8-- | 
A | --3--------------------------------------------10-10-10-10---8-8-8-8-- | 
E | --1---------------------------------------------8--8--8--8---6-6-6-6-- | 

                                                  a            a

                                                  | ----------PM-------- | 
e | ---------------------------------------------------------------------- | 
B | ---------------------------------------------------------------------- | 
G | ---------------------------------------------------------------------- | 
D | --5--------------------------------------------10-10-10-10---8-8-8-8-- | 
A | --5--------------------------------------------10-10-10-10---8-8-8-8-- | 
E | --3---------------------------------------------8--8--8--8---6-6-6-6-- | 

                                                  a            a

                                                  | ----------PM-------- | 
e | ---------------------------------------------------------------------- | 
B | ---------------------------------------------------------------------- | 
G | ---------------------------------------------------------------------- | 
D | --3--------------------------------------------10-10-10-10---8-8-8-8-- | 
A | --3--------------------------------------------10-10-10-10---8-8-8-8-- | 
E | --1---------------------------------------------8--8--8--8---6-6-6-6-- | 

                                                  a            a
----

Rhythm fig. 6  (Chorus)

                                 | ----PM---- |       | ----PM--- | 
e | ---------------------------------------------------------------------- | 
B | ---------------------------------------------------------------------- | 
G | ---------------------------------------------------------------------- | 
D | --10-----10--------------------------------------------------------8-- | 
A | --10-----10---------------10---8------------8----------------------8-- | 
E | ---8------8------------------------11--10-------11--10--8----------6-- | 

     a      a                a                a

               PM
e | ---------------------------------------------------------------------- | 
B | ---------------------------------------------------------------------- | 
G | ---------------------------------------------------------------------- | 
D | ---------------------------------------------------------------------- | 
A | -----------------------------8--8h10p8-------------------------------- | 
E | --------------8--8--10--11---------------11--10----------------------- | 

                               f  f  f f 

                                 | ----PM---- |       | ----PM--- | 
e | ---------------------------------------------------------------------- | 
B | ---------------------------------------------------------------------- | 
G | ---------------------------------------------------------------------- | 
D | --10-----10----------------------------------------------------------- | 
A | --10-----10----------------10---8------------8------------------------ | 
E | ---8------8-------------------------11--10-------11--10--8------------ | 

     a      a                a                a

e | ---------------------------------------------------------------------- | 
B | ---------------------------------------------------------------------- | 
G | ---------------------------------------------------------------------- | 
D | -----------------13-------12-------10--------(b9)----------------------- | 
A | -----------------13-------12-------10--------(b9)----------------------- | 
E | -----------------11-------10--------8--------7------------------------ | 

                    A        A        A        A

----

Rhythm fig. 7

     | ----------------------let ring----------------------------------->
e | ---------------------------------------------------------------------- | 
B | ---------------------------------------------------------------------- | 
G | ---------------------------------------------------------------------- | 
D | --3------------------------------------------------------------------- | 
A | --3------------------------------------------------------------------- | 
E | --1------------------------------------------------------------------- | 

----

Rhythm fig. 8

     | ----------------------let ring----------------------------------->
e | ---------------------------------------------------------------------- | 
B | ---------------------------------------------------------------------- | 
G | ---------------------------------------------------------------------- | 
D | --5------------------------------------------------------------------- | 
A | --5------------------------------------------------------------------- | 
E | --3------------------------------------------------------------------- | 

----

Rhythm fig. 9

e | ---------------------------------------------------------------------- | 
B | ---------------------------------------------------------------------- | 
G | ---------------------------------------------------------------------- | 
D | ---------------------------------------------------------------------- | 
A | ------------------------12--14------12--14--12--14-------------------- | 
E | ------------12--14--15------------------------------------------------ | 

e | -------------------------------12--14--14--12--12--------------------- | 
B | -----------------------12--13----------------------13--12------------- | 
G | ---------------12--14------------------------------------------------- | 
D | -------12--14--------------------------------------------------------- | 
A | ---------------------------------------------------------------------- | 
E | ---------------------------------------------------------------------- | 

e | ---------------------------------------------------------------------- | 
B | ---------------------------------------------------------------------- | 
G | ---------------------------------------------------------------------- | 
D | ---------------------------------------------------------------------- | 
A | ------------------------12--14------12--14--12--14-------------------- | 
E | ------------12--14--15------------------------------------------------ | 

e | ---------------------------------------------------------------------- | 
B | ---------------------------------------------------------------------- | 
G | ---------------------------------------------------------------------- | 
D | --------------------5-------4-------2-------(b9)------------------------ | 
A | --------------------5-------4-------2-------(b9)------------------------ | 
E | --------------------3-------2-------0-------7------------------------- | 

                      a       a       a       a

----

Rhythm fig. 10


    | ------------------------------PM-------------------------------------- |  
e | ------------------------------------------------------------------------- | 
B | ------------------------------------------------------------------------- | 
G | ------------------------------------------------------------------------- | 
D | ------------------------------------------------------------------------- | 
A | ------------------------------------------------------------------------- | 
E | -0-0-3-5-5-5-6-6-6-0-0-3-5-5-5-6-6-6-0-0-3-5-5-5-6-6-6-0-0-3-5-5-5-6-6-6- | 

    | --------------------------------f------------------------------------- | 

e | ---------------------------------------------------------------------- | 
B | ---------------------------------------------------------------------- | 
G | ---------------------------------------------------------------------- | 
D | ----------------(b9)---------------(b9)---------------(b9)------------------ | 
A | ----------------(b9)---------------(b9)---------------(b9)------------------ | 
E | ----------------7----------------7----------------7------------------- | 

                  a                a                A

Song structure:

Rhythm fig. 1    2x    (Intro)

Rhythm fig. 2    2x    (Verse)

Rhythm fig. 3    1x    (Bridge)

Rhythm fig. 4    1x


Rhythm fig. 2    2x   (Verse)

Rhythm fig. 5    1x   

Rhythm fig. 6    2x   (Chorus)

Rhythm fig. 3    1x   (Bridge)

Rhythm fig. 4    1x


Rhythm fig. 2    2x   (Verse)

Rhythm fig. 5    1x   (2nd guitar: solo)

Rhythm fig. 7    2x   (2nd guitar: solo)

Rhythm fig. 8    2x   (2nd guitar: solo)

Rhythm fig. 7    2x   (2nd guitar: solo)


Rhythm fig. 6    2x   (Chorus)

Rhythm fig. 3    1x   (Bridge)

Rhythm fig. 4    1x


Rhythm fig. 9    4x


Rhythm fig. 4    2x   (without B5 chord)

Rhythm fig. 2    2x   (Verse)    

Rhythm fig. 3    1x   (Bridge)

Rhythm fig. 10   1x   (Outro) 		   
AcordesyTabs.com © 2008 Acordes y Tablaturas para guitarra. Tabs and Chords for guitar. Aviso Legal - Contacto
El uso de este sitio está sujeto a la aceptación de los términos y condiciones (78 usuarios online)