tablaturas, partituras y acordes para guitarra
Busca por banda/artista:
 
y/o título de la canción:
A B C D E F G H I J K L M N O P Q R S T U V W X Y Z 0 1 2 3 4 5 6 7 8 9 / Top 100 tabs
Categorías
Usuarios
usuario:
Darse de alta
password:
Artistas más visitados
Publicidad
TOP acordes y tablaturas de Lacrimosa


Estás en: Inicio > Letra L > Acordes y tablaturas de Lacrimosa > Seele in not
Seele in not
de Lacrimosa
Puntúa este acorde/tab:      
(0.4/5)
Reportar este acorde/tab
  Añadir a tus favoritos
  Imprimir
^ - hammer on, pull off                    
 b - bend string up                         
 r - release bend          
 / - slide up              
  - slide down                             
 ~ - vibrato          
 T - tap             
 x - struck string                          
 . - play the note and then mute it     
 < - raising volume    
PM - palm mute                             
AH - Artificial Harmonic     
 
 
INTRO:  
Bass: A-G-F-E alone 
 
 |Guitar2: / 
 |Guitar1:  
e|-------------------------------------------| 
B|---------------5-6-5-----------------------| 
G|------(b9)7-5-7------------2-4-5-4--2-4-5----| 
D|-(7)-----------------5------------------3--|------| 
A|-------------------------------------------|      | 
E|-------------------------------------------|      | 
          |SOLO1 
|------------------------------------------------|  | 
|------------------------------------------------|  | 
|-----5-4---2-2-2-2/4-4-4-4/5-5-5-5/7-7--5-4-(5)-|--| 
|-5-7--------------------------------------------| Here "5" is 
in brackets 
|------------------------------------------------| because it is 
played as the 
|------------------------------------------------| beginning of 
SOLO1 (instead 
        of "7") when it is played 
        for the 2nd time.      
|Guitar1: SOLO1 (instead of "7" play "5") 
|Guitar2: 
|--------------------------------------------------------------| 
|--------------------------------------------------------------| 
|--------------------------------------------------------------| 
|--/x--/x--/x--/x--/x--/x-----x-x-----/x--/x--/x--/x--/x--/x---| 
|--/x--/x--/x--/x--/x--/x-----x-x-----/x--/x--/x--/x--/x--/x---| 
|--/x--/x--/x--/x--/x--/x-----x-x-----/x--/x--/x--/x--/x--/x---| 
 
 
|Guitar1: SOLO1 (instead of "7" play "5") 
|Guitar2: 
|-------------------------------------------------------------------| 
|-------------------------------------------------------------------| 
|-------------------------------------------------------------------|FIG1 
|-------------------------------------------------------------------| 
|-7777777777777777555555555555555533333333333333332222222222222222--| 
|-5555555555555555333333333333333311111111111111110000000000000000--| 
  PM...................................................... 
 
 
|Guitar1&2: 
|------------------------------------------------| 
|------------------------------------------------| 
|------------------------------------------------| 
|------------------------------------------------|----| 
|-7----7------7----7------5----5------5----5-----|    | 
|-5--5-5--555-5--5-5--555-3--3-3--333-3--3-3-333-|    |FIG2 
     PM   ...    .    ...    .    ...    .   ...      | 
|------------------------------------------------|    |X2 
|------------------------------------------------|    | 
|------------------------------------------------|----| 
|------------------------------------------------| 
|-3----3------3----3------2----2------2----2-----| 
|-1--1-1--111-1--1-1--111-0--0-0--000-0--0-0-000-|     
     .    ...    .    ...    .    ...    .   ... 
 
 
 
 
 
VERSE1:  
-only keyboards A-G-F-E X2 
-then: 
|-------------------------------------------| 
|-------------------------------------------| 
|-------------------------------------------|FIG3 
|-------------------------------------------| 
|--7-7.-----5-5.-----3-3.----2~---22222222--| 
|--5-5.-----3-3.-----1-1.----0~---00000000--| 
 
-then: FIG2 X2  
 
 
 
 
 
 
VERSE2:  
-only keyboards A-G-F-E X1 
-FIG3 X1: 
-FIG1 X1: 
-only keyboards A-G X1 
-then: 
|------------------------------------| 
|------------------------------------| 
|------------------------------------| 
|------------------------------------| 
|--33333333333333332222222222222222--| 
|--11111111111111110000000000000000--| 
   PM................................. 
 
 
 
 
 
VERSE3: 
-FIG2 X1  
-FIG1 X1 
-FIG2 X2 
 
 
 
 
VERSE4: 
-SOLO1 X2 
 
 
 
 
END: 
-FIG2 X8		   
AcordesyTabs.com © 2008 Acordes y Tablaturas para guitarra. Tabs and Chords for guitar. Aviso Legal - Contacto
El uso de este sitio está sujeto a la aceptación de los términos y condiciones (33 usuarios online)