tablaturas, partituras y acordes para guitarra
Busca por banda/artista:
 
y/o título de la canción:
A B C D E F G H I J K L M N O P Q R S T U V W X Y Z 0 1 2 3 4 5 6 7 8 9 / Top 100 tabs
Categorías
Usuarios
usuario:
Darse de alta
password:
Artistas más visitados
Publicidad
TOP acordes y tablaturas de Within temptation


Candles
de Within temptation
Puntúa este acorde/tab:      
(0.8/5)
Reportar este acorde/tab
  Añadir a tus favoritos
  Imprimir
Tune to D (D,G,C,F,A,D) 
 
Intro (madoline? / Don't take this too precise ;) ) 
Sol... La... Sol... La... Sol... La... Sol... Re#... 
 
for guitar: 
|--17-1717171717-17171717-17h1(b9)191919191(b9)19191(b9)-- x3  
|---------------------------------------------------    
|--------------------------------------------------- 
|--------------------------------------------------- 
|--------------------------------------------------- 
|--------------------------------------------------- 
 
|--17-1717171717-17171717--------------------------- 4th time 
|-------------------------18-1818181818-18181818----  
|--------------------------------------------------- 
|--------------------------------------------------- 
|--------------------------------------------------- 
|--------------------------------------------------- 
 
 
Riff 1 
|----------------------------------------------------------------------------------- 
|----------------------------------------------------------------------------------- 
|----------------------------------------------------------------------------------- 
|----------------------------------------------------------------------------------- 
|--5--5--(9)(9)(b9)-10--10-10-(b9)-(9)(9)(b9)-7--3--(b9)-(9)(9)(b9)-10--10-(b9)-(9)(9)(b9)-7--3--- 
|--3--7--(7)(7)7--8---8--8--7--(7)(7)7--5--1--7--(7)(7)7--8---8--7--(7)(7)7--5--1--- 
 
 
Riff 2 
|-------------------------------------------------------------------- 1st & 3rd time 
|-------------------------------------------------------------------- 
|-------------------------------------------------------------------- 
|-------------------------------------------------------------------- 
|--2--(2)(2)(2)(2)-2--(2)(2)(2)(2)-3--(3)(3)(3)(3)-3--(3)(3)(3)(3)--- 
|--0--(0)(0)(0)(0)-0--(0)(0)(0)(0)-1--(1)(1)(1)(1)-1--(1)(1)(1)(1)--- 
| 
|---------------------------------------------------------- 2nd time 
|---------------------------------------------------------- 
|---------------------------------------------------------- 
|--------------------------------------------------7-7-7--- 
|--2--(2)(2)(2)(2)-2--(2)(2)(2)(2)-3--(3)(3)(3)(3)-5-5-5--- 
|--0--(0)(0)(0)(0)-0--(0)(0)(0)(0)-1--(1)(1)(1)(1)-5-5-5--- 
| 
|------------------------------------------------------------------------- 4th time 
|------------------------------------------------------------------------- 
|------------------------------------------------------------------------- 
|------------------------------------------------------------------------- 
|--2--(2)(2)(2)(2)-2--(2)(2)(2)(2)-(3)(3)(3)(3)(3)(3)(3)(3)(3)(3)(3)(3)--- 
|--0--(0)(0)(0)(0)-0--(0)(0)(0)(0)-(1)(1)(1)(1)(1)(1)(1)(1)(1)(1)(1)(1)--- 
 
 
Riff 3 
|------------------------------------- 
|------------------------------------- 
|------------------------------------- 
|--------------------4---------------- 
|--7--7--7--7--3--3--2--(5)-(5)-(5)--- 
|--5--5--5--5--1--1-----(3)-(3)-(3)--- 
 
 
Riff 4 
|------------------------------------------------------------ 
|------------------------------------------------------------ 
|------------------------------------------------------------ 
|--7--(7)(7)(7)(7)7--(7)(7)(7)(7)7--(7)(7)(7)(7)7--(7)(7)7--- 
|--5--(5)(5)(5)(5)5--(5)(5)(5)(5)5--(5)(5)(5)(5)5--(5)(5)5--- 
|------------------------------------------------------------ 
| 
|----------------------------------------------------------------- 
|----------------------------------------------------------------- 
|----------------------------------------------------------------- 
|----------------------------------------------------------------- 
|--3--(3)(3)(3)(3)3--(3)(3)(3)(3)3--(3)(3)(3)(3)2--(2)(2)(3)(2)--- 
|--1--(1)(1)(1)(1)1--(1)(1)(1)(1)1--(1)(1)(1)(1)0--(0)(0)(1)(0)--- 
 
 
Riff 5 
Listen to the song to hear how many times you got to play this. 
|----- 
|----- 
|----- 
|----- 
|--2-- 
|--0-- 
 
 
Repeat Riff 3		   
AcordesyTabs.com © 2008 Acordes y Tablaturas para guitarra. Tabs and Chords for guitar. Aviso Legal - Contacto
El uso de este sitio está sujeto a la aceptación de los términos y condiciones (22 usuarios online)