tablaturas, partituras y acordes para guitarra
Busca por banda/artista:
 
y/o título de la canción:
A B C D E F G H I J K L M N O P Q R S T U V W X Y Z 0 1 2 3 4 5 6 7 8 9 / Top 100 tabs
Categorías
Usuarios
usuario:
Darse de alta
password:
Artistas más visitados
Publicidad
TOP acordes y tablaturas de The cure


Estás en: Inicio > Letra T > Acordes y tablaturas de The cure > The same deep water as you
The same deep water as you
de The cure
Puntúa este acorde/tab:      
(0.6/5)
Reportar este acorde/tab
  Añadir a tus favoritos
  Imprimir
main riff /intro 
 
      A         B         C             B 
E|--------------------------------------------------------------- 
B|--------------------------------------------------------------- 
G|--------------------------------------------------------------- 
D|----7-7-7-7-7-(b9)(b9)(b9)(b9)(b9)10-10-10-10-10-(b9)(b9)(b9)(b9)(b9)-------------- 
A|--------------------------------------------------------------- 
E|--------------------------------------------------------------- 
       
keyboards play 4 times 
                                                                         
E|--------------------------------------------------------------- 
B|--------------------------------------------------------------- 
G|-------(b9)-7------(b9)-------------------------------------------- 
D|----7----------------5---7------------------------------------- 
A|--------------------------------------------------------------- 
E|--------------------------------------------------------------- 
      
 
back to mainriff - verse 1 
 
then main solo - play 4 times 
                                                                          
E|--------------------------------------------------------------- 
B|--------------------------------------------------------------- 
G|---(b9)----7------5--7-5----4-5--4------------------------------- 
D|-----10----(b9)--------------------5--7-------------------------- 
A|--------------------------------------------------------------- 
E|--------------------------------------------------------------- 
        
 
back to mainriff - verse 2 
 
then main solo - play 4 times 
 
 
then goes to solo 1 -  play twice 
                                                                        
E|--------------------------------------------------------------- 
B|--------------------------------------------------------------- 
G|------------7-7-7--10-10-10-(b9)---------------12-12-14-(b9)------- 
D|-5-7----(b9)(b9)--------------------10-10-(b9)(b9)(b9)------------------- 
A|--------------------------------------------------------------- 
E|--------------------------------------------------------------- 
 
                                                                               
E|--------------------------------------------------------------- 
B|--------------------------------------------------------------- 
G|--(b9)(b9)(b9)--(b9)7-7-5-5------5-5-5-5--4---------------------------- 
D|--------------------7---------------5--5-7--------------------- 
A|--------------------------------------------------------------- 
E|--------------------------------------------------------------- 
  
back to mainriff - verse 3 
 
then main solo  play 4 times 
 
then play again solo 1 but only 1 1/2 time ( that mean's solo 1 is linked with solo 2) 
 
                                                                              
last part of solo 1 
 
E|--------------------------------------------------------------- 
B|--------------------------------------------------------------- 
G|------------7-7-7--10-10-10-(b9)---------------12-12-14-(b9)------- 
D|-5-7----(b9)(b9)---------------------10-10-(b9)(b9)(b9)------------------ 
A|--------------------------------------------------------------- 
E|--------------------------------------------------------------- 
 
solo 2 starts with this 
 
E|--------------------------------------------------------------- 
B|----------------------------13-13-13-12-12--------------------- 
G|--14-14-14-16--16--16--16-------------------(b9)----------------- 
D|--------------------------------------------------------------- 
A|--------------------------------------------------------------- 
E|--------------------------------------------------------------- 
 
 
E|--------------------------------------------------------------- 
B|--------------------------------------------------------------- 
G|--(b9)(b9)7--------(b9)(b9)7-------(b9)7----(b9)7----(b9)7----(b9)7----(b9)7----- 
D|--------10-7--------10-7------10-----10-----10-----10-----10--- 
A|--------------------------------------------------------------- 
E|--------------------------------------------------------------- 
 
E|--------------------------------------------------------------- 
B|----------------------------13-13-13-12-12--------------------- 
G|--14-14-14-16--16--16--16-------------------(b9)----------------- 
D|--------------------------------------------------------------- 
A|--------------------------------------------------------------- 
E|--------------------------------------------------------------- 
 
E|--------------------------------------------------------------- 
B|--------------------------------------------------------------- 
G|--(b9)(b9)7---------------(b9)(b9)7------------(b9)(b9)7------------------- 
D|--------10-7----------------10-7-------------10-7-------------- 
A|--------------------------------------------------------------- 
E|--------------------------------------------------------------- 
 
 
back to main solo - play 4 times 
 
after the mainsolo I play again solo 1 - 2 times ( robert plays only a few licks here) 
 
 
fade out notes 
 
E|--------------------------------------------------------------- 
B|--------------------------------------------------------------- 
G|--------------------------------------------------------------- 
D|---------7------------------------7---------------------------- 
A|--------------------------------------------------------------- 
E|--------------------------------------------------------------- 
 
end.		   
AcordesyTabs.com © 2008 Acordes y Tablaturas para guitarra. Tabs and Chords for guitar. Aviso Legal - Contacto
El uso de este sitio está sujeto a la aceptación de los términos y condiciones (20 usuarios online)