tablaturas, partituras y acordes para guitarra
Busca por banda/artista:
 
y/o título de la canción:
A B C D E F G H I J K L M N O P Q R S T U V W X Y Z 0 1 2 3 4 5 6 7 8 9 / Top 100 tabs
Categorías
Usuarios
usuario:
Darse de alta
password:
Artistas más visitados
Publicidad
TOP acordes y tablaturas de Metallica


Estás en: Inicio > Letra M > Acordes y tablaturas de Metallica > Funeral march of a marionette
Funeral march of a marionette
de Metallica
Puntúa este acorde/tab:      
(0.1/5)
Reportar este acorde/tab
  Añadir a tus favoritos
  Imprimir
e|--------------------------------------------------- 
B|--------------------------------------------------- 
G|--------------------------------------------------- 
D|--//--7-7-5-7-8-7-5---5-5-4-5-7-4-----------------5 
A|----------------------------------5---8-8-7-5-7-8-- 
E|--------------------------------------------------- 
 
Rythm guitar 
D|--2-7--X--X--X--               -2--7--(b9)-10---- 
A|--0-5--X--X--X--  three times  -0--5--7--8---10 
E|----------------               --------------8- 
 
Lead guitar 
e|---------------------------------- 
B|---------------------------------- 
G|----7-7-7-6---6-7-(b9)---7-7-7-6---6 
D|--7---------(b9)-------7---------(b9)- 
A|---------------------------------- 
E|---------------------------------- 
This is the main riff, sometimes with artificial harmonics or wah. 
 
e|-------------------------------12-----9h12p(b9)---------- 
B|------10----------13-----10-10----12---------9h12p(b9)7-- 
G|--7-7----(b9)-10-10----12-------------------------------7 
D|------------------------------------------------------- 
A|------------------------------------------------------- 
E|------------------------------------------------------- 
The rising part.  At the end instead of playing the sale 
back down, just trill the (b9)12 on the high E.		   
AcordesyTabs.com © 2008 Acordes y Tablaturas para guitarra. Tabs and Chords for guitar. Aviso Legal - Contacto
El uso de este sitio está sujeto a la aceptación de los términos y condiciones (36 usuarios online)