tablaturas, partituras y acordes para guitarra
Busca por banda/artista:
 
y/o título de la canción:
A B C D E F G H I J K L M N O P Q R S T U V W X Y Z 0 1 2 3 4 5 6 7 8 9 / Top 100 tabs
Categorías
Usuarios
usuario:
Darse de alta
password:
Artistas más visitados
Publicidad
TOP acordes y tablaturas de Morbid angel


Enshrined
de Morbid angel
Puntúa este acorde/tab:      
(0.5/5)
Reportar este acorde/tab
  Añadir a tus favoritos
  Imprimir
tune low to high 7 string
    Bb-Eb-Ab-Db-Gb-Bb-(Eb)              update

Riff 1     4/4
Left
--------------------- | ------------------- | ---------------------- | 
--------------------- | ------------------- | ---------------------- | 
--------------------- | ----------,-------- | ---------------------- | 
-2----;-------------- | -------4-----7----- | -2----;--------------- | 
-2----------------/6- | -5-----2-----5----- | -2----------------/6-- | 
-0--0--0--0-00--0---- | -----0-----------0- | -0--0--0--0-00--0----- | 
Right
--------------------- | ------------------- | ---------------------- | 
--------------------- | ------------------- | ---------------------- | 
--------------------- | ----------,-------- | ---------------------- | 
-2----;-------------- | ------------------- | -2----;--------------- | 
-2----------------/3- | -2-----2-----5----- | -2----------------/3-- | 
-0--0--0--0-00--0---- | -----0-0-----3---0- | -0--0--0--0-00--0----- | 

Left
------------------ | --------------------- | ----------------------- | 
------------------ | --------------------- | ----------------------- | 
------------------ | --------------------- | ----------------------- | 
-----4------------ | -2------------------- | -4-------4------------- | 
-5---2------5----- | -2----------------/3- | -2-------2------------- | 
---------0--3----- | -0--0--0--0-00--0---- | ----0--0---0--0--0--0-- | 
Right
------------------ | --------------------- | ----------------------- | 
------------------ | --------------------- | ----------------------- | 
------------------ | --------------------- | ----------------------- | 
-----4------------ | -2------------------- | -4-------4------------- | 
-2---2------5----- | -2----------------/3- | -2-------2------------- | 
---------0--3----- | -0--0--0--0-00--0---- | ----0--0---0--0--0--0-- | 
                                               _____________
Riff 2                                         1.3. | 2.
------------------------ | -------------------------- | ------------ | 
------------------------ | -------------------------- | ------------ | 
------------------------ | -------------------------. | ------------ | 
------------------------ | ----------------------ph-. | ------------ | 
------------------------ | ---------00--1100------)~~ | ------------ | 
-00-0--33-3--22-2--3322- | -3322--33----------33-2--- | -2---------- | 
___________________________________________________
4.
------------------------ | -------------------------- | ------------ | 
------------------------ | -------------------------- | -Riff-1----- | 
------------------------ | -------------------------- | ------------ | 
------------------------ | -------------------------- | -Riff-2----- | 
------------------------ | ---------00--------------- | ------------ | 
-00-0--33-3--22-2--3322- | -3322--33------/6--5------ | ------------ | 

Riff 3
2/4          4/4                         4x
----------- | ----------------- | ------------- | 
----------- | -pm.............- | ------------- | 
----------- | ----------------- | ------------. | 
-------}--- | ----------------- | --,--,--,--,. | 
-5-5------- | -5-5-4-5-8-8-7-7- | -5--5--5--5-- | 
-3-3------- | -3-3-2-3-6-6-5-5- | -3--3--3--3-- | 

Riff 4
---------------- | --------------- | -------------- | ---------------- | 
---------------- | --------------- | -------------- | ---------------- | 
---------------- | --------------- | -------------- | ---------------- | 
---------------- | --------------- | -------------- | ---------------- | 
---------------- | --------------- | -------1-1-0-0-2-2-1-1-3-3-2-2- | 
-3-3-2-2-3-3-2-2-4-4-3-3-3-3-2-2-3-3-2-2------- | ---------------- | 
Riff 4a
---------------- | --------------- | -------------- | ---------------- | 
---------------- | --------------- | -------------- | ---------------- | 
---------------- | --------------- | -------------- | --------3------- | 
---------------- | --------------- | -------------- | --------2--}---- | 
---------------- | --------------- | -------1-1-0-0-2-2-1-1-1------- | 
-3-3-2-2-3-3-2-2-4-4-3-3-3-3-2-2-3-3-2-2------- | --------0------- | 

Riff 4 2x

Left Riff5                                       2/4
--------------------- | --------------------- | -------------------- | 
--------------------- | --------------------- | -------------------- | 
--------------------- | --------------------- | -------------------- | 
-2----;-------------- | ------;-------------- | -------------------- | 
-2----------------/3- | -2------------------- | -------------------- | 
-0--0--0--0-00--0---- | ----0--0--0-00--0--0- | -2-2-2-2-1-1-1-1---- | 
Right
--------------------- | --------------------- | -------------------- | 
--------------------- | --------------------- | -------------------- | 
--------------------- | --------------------- | -------------------- | 
-2----;-------------- | ----------,---------- | -------------------- | 
-2----------------/3- | -2-----2-----5------- | -------------------- | 
-0--0--0--0-00--0---- | ----0--0-----3---0--- | -2-2-2-2-1-1-1-1---- | 

Riff4
Riff4a
riff4 2x
solo rythem
------------------------ | --------------------------- | 
------------------------ | --------------------------- | 
------------------------ | --------------------------- | 
------------------------ | ----------------------ph--- | 
------------------------ | ---------00--1100------)~~- | 
-00-0--33-3--22-2--3322- | -3322--33----------33-2---- | 

------------------------ | ------------------------ | 
------------------------ | ------------------------ | 
------------------------ | ------------------------ | 
------------------------ | ------------------------ | 
------------------------ | ----3--2--0--4--3--2---- | 
-00-0--33-3--22-2--3322- | -33-------------------3- | 

------------------------ | ------------ | -------------------------- | 
------------------------ | ------------ | -------------------------- | 
------------------------ | ------------ | -------------------------- | 
------------------------ | ------------ | -------------------------- | 
------------------------ | --------00-- | -11-0--------------------- | 
-00-0--33-3--22-2--3322- | -3322-33---- | -------------------------- | 
                                                              8x
--------------------- | ------------------ | ----------------------- | 
--------------------- | ------------------ | ----------------------- | 
--------------------- | .----------------- | -------------------.--- | 
------------}-,------ | .------------^---- | ------------}-,----.--- | 
-44-4--4-4--------44- | -554466447755--44- | -4--4--44-4-----44----- | 
-22-2--2-2--------22- | -222222222222--22- | -2--2--22-2-----22----- | 

solo
on 6 string guitar

                               ^ ^  ^  ^   ^
--h--p-h----t-p---t-p-h--t-p--7-8-10-12-7-8-10-12-7-8- | 
--^--^-^--^--^--^--^-^--^--^-------------------------- | 
-7-11-7-11-16-11-16-7-11-16-7------------------------- | 
------------------------------------------------------ | 
------------------------------------------------------ | 
------------------------------------------------------ | 

-10-8-7------10------------------------------------------- | 
--------10-8----7------^-------------------------------- | 
--------------------7-5-7-5-4--------------------------- | 
--------------------------------7-5-4-7-5-4--------------- | 
--------------------------------------------7-5-3-2------- | 
----------------------------------------------------5-3-2- | 

--------------------------------------------- | 
----------------------------^-^--5/7-8-10/12- | 
-----------------------3/4-4-6-7------------- | 
-----------------4-5-7----------------------- | 
---------2/3-5-7----------------------------- | 
-0-2-3-5------------------------------------- | 

                  ^           ^   ph...............
---^---13---^---13-12-13-15-13-12-15-13-12------------^--^--- | 
-12-15----12-15----------------------------15-13-12-12-13-12- | 
------------------------------------------------------------- | 
------------------------------------------------------------- | 
------------------------------------------------------------- | 
------------------------------------------------------------- | 

----------12-14-15-14-12----------------------------------------- | 
-12-13-15----------------15-14-12-------------------------------- | 
----------------------------------14-12-11----------------------- | 
-------------------------------------------14-12-10-------------- | 
----------------------------------------------------12-10-(b9)----- | 
----------------------------------------------------------------- | 

--------------------------------- | 
--------------------------------- | 
--------------------------------- | 
--------------8------8----------- | 
--------------------------------- | 
-12-11-8--10-----10------10-8--- | 

----t--------t--------t--------t------------------------------10- | 
--^--^-^-^-^--^-^-^-^--^-^-^-^--^-^-^---------^--^---^---^-/12--- | 
-0-12-0-7-0-12-0-7-0-12-0-7-0-12-0-7-0-6-6-6-70-670-76-10(b9)------ | 
----------------------------------------------------------------- | 
----------------------------------------------------------------- | 
----------------------------------------------------------------- | 

-(10)----------- | --------------------- | ---^---ph----------------- | 
-(12)----------- | -15------------------ | -15-14-14--12------------- | 
---------------- | --------------------- | -------------------------- | 
---------------- | --------------------- | -------------------------- | 
---------------- | --------------------- | -------------------------- | 
---------------- | --------------------- | -------------------------- | 

------------------------ | --------------------- | --wah------------- | 
------^----------------- | ---^----------------- | ------------------ | 
-14-11-12/14------------ | -12-11----11--------- | -(11)------------- | 
------------------------ | -------13------------ | ------------------ | 
------------------------ | --------------------- | ------------------ | 
------------------------ | --------------------- | ------------------ | 

-b------------ | -------------- | --b----------- | --^--^-------------- | 
--)----------- | -------------- | --)--//----- | -8-10-12------------ | 
-(b9)--10-(b9)---- | -------------- | -(b9)----------- | ---------(b9)~~~------ | 
----------(b9)-- | -trill-------- | -------------- | -------------------- | 
-------------- | -------------- | -------------- | -------------------- | 
-------------- | -78787-------- | -------------- | -------------------- | 

--------- | ---------------- | -trill----------- | -------------------- | 
--------- | ---------------- | ----------------- | -------------------- | 
-7-4--- | ---------------- | -34343----------- | -------------------- | 
--------- | ---------------- | ----------------- | -------------------- | 
--------- | ---------------- | ----------------- | -------------------- | 
--------- | ---------------- | ----------------- | -------------------- | 

--------------- | ---^---ph--ph--- | ----------------------- | 
-------^--^---- | -10-12-----12--- | -10---10-12-13-15-17--- | 
-/11-11-13-11-- | -------11------- | ----11----------------- | 
--------------- | ---------------- | ----------------------- | 
--------------- | ---------------- | ----------------------- | 
--------------- | ---------------- | ----------------------- | 

                                               )+1 1/2
-neck-pickup------------------------17-1(b9)17-1(b9)----------------- | 
--delay-----------------17-1(b9)17-1(b9)----------------------------- | 
------------14-16-17/1(b9)----------------------------------------- | 
---14-16-17------------------------------------------------------ | 
----------------------------------------------------------------- | 
----------------------------------------------------------------- | 

Riff 2+2a                                  4th x hold chord
----------------------- | ------------------------ | --------------- | 
-2a-------------------- | ------------------------ | --------------- | 
----------------------- | ------------------------ | -(2)----------- | 
----------------------- | ----------2--3--2------- | -(2)----------- | 
----------------------- | -5--4--5--0--1--0--5--4- | -(0)----------- | 
-00-0--33-3--22-2-3322- | -3--2--3-----------3--2- | --------------- | 

----------------------- | -Riff-5-- | ------------------------------ | 
----------------------- | --------- | ------------------------------ | 
----------------------- | -Riff-3-- | -7---------------------------- | 
----------------------- | --------- | -5---------------------------- | 
----------------------- | --------- | -5---------------------------- | 
-0--0--2-2-2-2-1-1-1-1- | --------- | -3---------------------------- |  		   
AcordesyTabs.com © 2008 Acordes y Tablaturas para guitarra. Tabs and Chords for guitar. Aviso Legal - Contacto
El uso de este sitio está sujeto a la aceptación de los términos y condiciones (26 usuarios online)