tablaturas, partituras y acordes para guitarra
Busca por banda/artista:
 
y/o título de la canción:
A B C D E F G H I J K L M N O P Q R S T U V W X Y Z 0 1 2 3 4 5 6 7 8 9 / Top 100 tabs
Categorías
Usuarios
usuario:
Darse de alta
password:
Artistas más visitados
Publicidad
TOP acordes y tablaturas de Morbid angel


Hatework
de Morbid angel
Puntúa este acorde/tab:      
(0.2/5)
Reportar este acorde/tab
  Añadir a tus favoritos
  Imprimir
Intro A                     2x
 | --------------------------- | 
 | --------------------------- | 
 | --------------------------- | 
 | -7~-----7--7-----7--8--11-- | 
 | --------------------------- | 
 | -5~-----5--5-----5--6---(b9)- | 
Intro B
 | --------------------------------- | 
 | --------------------------------- | 
 | --------------------------------- | 
 | -9~-----(b9)-(b9)----(b9)10---13--13~-- | 
 | --------------------------------- | 
 | -7~-----7--7-----7--8---11--11~-- | 
Intro C
 | --------------------------------- | 
 | --------------------------------- | 
 | --------------------------------- | 
 | -9~-----(b9)-(b9)----(b9)10---13--10~-- | 
 | --------------------------------- | 
 | -7~-----7--7-----7--8---11---8~-- | 
Intro D
 | --------------------------- | 
 | --------------------------- | 
 | --------------------------- | 
 | -6~-----6--6-----6--7--10-- | 
 | --------------------------- | 
 | -4~-----4--4-----4--5---8-- | 
Keyboard sounds again

Riff 1                                 4x
 | -------------------------------------------- | 
 | -------------------------------------------- | 
 | -------------------------------------------- | 
 | ----5~------6~--5~------5~------6--5--7--8-- | 
 | -2-------2-----------2-------2-------------- | 
 | -0--3~---0--4~--3~---0--3~---0--4--3--5--6-- | 
pm.       .           .       .

Riff 2
 | ------------------------------------------------------ | 
 | ------------------------------------------------------ | 
 | ------------------------------------------------------ | 
 | 10~-----7~----10~-----7~----10~-----7~-----5~-----3~-- | 
 | ------------------------------------------------------ | 
 | -8~-----5~-----8~-----5~-----8~-----5~-----3~-----1~-- | 

Riff 1 2x under solo 1
Solo 1
 | -------------------------------------------- | 
 | -7~---9sbr~--8--8--7--7/8--7--4--7--7p4h7~-- | 
 | -------------------------------------------- | 
 | -------------------------------------------- | 
 | -------------------------------------------- | 
 | -------------------------------------------- | 

Riff 1 4x
Riff 2
Riff 3                              4x
 | --------------------------------------- | 
 | --------------------------------------- | 
 | --------------------------------------- | 
 | -6-----------5-----------/5~------/6~-- | 
 | -4--7--6--7--3--5/6--5-5------5-5------ | 
 | ----5--4--5-----3/4--3-3-/3~--3-3-/4~-- | 
pm                    . .      . .

Riff 1 4x
Intro A 2x
Intro B
Intro C
Intro D
Keyboard sounds again
Riff 1 4x
Riff 2
Riff 1 4x w/Solo 2 (not tabbed yet)
End of song. 		   
AcordesyTabs.com © 2008 Acordes y Tablaturas para guitarra. Tabs and Chords for guitar. Aviso Legal - Contacto
El uso de este sitio está sujeto a la aceptación de los términos y condiciones (24 usuarios online)