tablaturas, partituras y acordes para guitarra
Busca por banda/artista:
 
y/o título de la canción:
A B C D E F G H I J K L M N O P Q R S T U V W X Y Z 0 1 2 3 4 5 6 7 8 9 / Top 100 tabs
Categorías
Usuarios
usuario:
Darse de alta
password:
Artistas más visitados
Publicidad
TOP acordes y tablaturas de 3 Doors Down


Kryptonite
de 3 Doors Down
Puntúa este acorde/tab:      
(0.6/5)
Reportar este acorde/tab
  Añadir a tus favoritos
  Imprimir
#-----------------------------------------------------------------------------#
#-- File created with Instab - http://www.pconline.com/~smcarey/instab.html --#
#-----------------------------------------------------------------------------#

Author/Artist: 3 Doors Down
Title: Kryptonite
Album: the Better Life
Transcribed by: Michael Wilks
Email: mrw@datasync.com

This song is pretty simple to play and fun too..

During the verse, feel free to improvise a bit, dont stick
to exactly what is written, keep it loose..add an extra note here
and there....

On the palm muted section of the solo, its a bit easier
to use downstrokes instead of alternating strokes..
I know I have some mistakes, and I couldnt put everything on
here....There just isnt enough room....But its pretty accurate.

Good Luck and enjoy...!

---------------0---3-----0----x----x--2------x--x---x-------------------------
---------------3---3-----0----x----x--2------x--x---x-------------------------
---------------4---0-----2----x----x--4------4--x---2-------------------------
---------------4---0-----2----2----4--4------4--5---2---7---9-----------------
---------------2---2-----0----2----4--2------2--5---0---7---9-----------------
---------------x---3-----x----0----2--x---------3---x---5---7-----------------
 Chords used:  Bm  G   Asus2  E5  F#5 Bsus2  B5 G5  A5  A   B              .  

-----------------------------------------|------------------------------------
-------3----------------------------0----|----------3-------------------------
-----4---4----0---------0---------2------|-------4-----4---0---------0--------
---4--------4---------0---------2--------|----4----------4---------0-------2--
-2------------------2---------0----------|-2---------------------2-------0----
------------------3----------------------|---------------------3--------------
 Intro....                                                                    

---------|-----------------------------------|--------------------------------
----0----|-------3---------------------0-----|---------3----------------------
--2------|-----4---4---0-------0-----2-------|------4----4---0---------0------
---------|---4-------4-------0-----2---------|----4--------4---------0--------
---------|-2---------------2-----0-----------|--2------------------2----------
---------|---------------3-------------------|-------------------3------------
    (GTR2:STRUM BM UP)   Gtr1 play intro..Gtr2 strums Bm,G,Asus2...           

-----0--------|---------------------------------------------------------------
-------0------|--------3------------------------------------------------------
---------2----|-----4----4---0------------------------------------------------
--------------|---4--------4--------------------------------------------------
-0------------|-2-------------------------------------------------------------
--------------|---------------------------------------------------------------
               "Well,I took a walk....  (Gtr1..Repeat intro four times..Gtr2  

------------------------------------------------------------------------------
------------------------------------------------------------------------------
------------------------------------------------------------------------------
------------------------------------------------------------------------------
------------------------------------------------------------------------------
------------------------------------------------------------------------------
 strum progression....."Oohh yea...Gtr 1 play variation of intro twice..Gtr2  

---------0----3--0----------------------------|-------------------------------
---------0----3--0----------------------------|---------3---------------------
---------4----0--2----------------------------|-------4---4----0---------0----
---------4----0--2----------------------------|-----4--------4---------0------
---------2----2--0----------------------------|---2------------------2--------
---------x----3--x----------------------------|--------------------3----------
 strum  Bsus2,G, A progression aggressively..   "I watched the world float... 

-----------------------------------|------------------------------------------
------0----------------------------|------------------------------------------
-----2-----------------------------|-------------------4--x-x--4-x-x-4-x-x-4--
---2-------------------------------|-------------------4--x-x--4-x-x-4-x-x-4--
-0---------------------------------|-------------------2--x-x--2-x-x-2-x-x-2--
-----------------------------------|----\\\\\----------------------------
       Gtr2 strum Bm,G,A chords..     Chorus:"If I go crazy....               

------------------------------------------------------------------------------
------------------------------------------------------------------------------
-x-x-x-x-x--x-----------------------------------------------------------------
-5-5-5-5-x--5-x-x-7-7-7-7--------9-9-x-9x-9-----9---9-9----------2-2-2---2----
-5-5-5-5-x--5-x-x-7-7-7-7--------9-9-x-9x-9-x-x-9-x-9-9----------2-2-2---2----
-3-3-3-3-x--3-x-x-5-5-5-5--------7-7-x-7x-7-x-x-7-x-7-7----\\--0-0-0---0----
 G                A            "If I'm alive and well...    "Will you be      

------------------------------------------------------------------------------
------------------------------------------------------------------------------
-----------------------------------------4--4--x--4-----4---4-4---4-----------
--2-----//4---2--------------------------4--4--x--4-----4---4-4---4------5-5--
--2--------------4---2-------------------2--2--x--2--x--2-x-2-2-x-2----x-5-5--
--0--------------------------------------x--x--x--x--x--x-x-x-x-x-x-//-x-3-3--
 there...           ..holding my hand..    "I'll keep you by my...       .    

------------------------------------------------------------------------------
------------------------------------------------------------------------------
------------------------------------------------------------------------------
--5-5--5-5--x--5-5-5---7-7---7-7---9----9-9-----9-9-------2-2-2-2----4-4-4-4--
--5-5--5-5--x--5-5-5-x-7-7-x-7-7---9-x--9-9-x-x-9-9-------2-2-2-2-x--4-4-4-4--
--3-3--3-3--x--3-3-3-x-5-5-x-5-5---7-x--7-7-x-x-7-7--\\-0-0-0-0-x--2-2-2-2--
 with  my superhuman..............might....Kryptonite..   E          F#       

----------------------------0------------------------|------------------------
---------3---------------------0---------------------|--------3---------------
-------4---4---0--------0-------2--------------------|------4---4--0----------
-----4-------4--------0-----------2------------------|----4-------4-----------
----2--------------------------------0---------------|--2---------------------
--------------------3------------------0-------------|------------------------
    Improvise picking...Gtr2 strum B,G,A.....           "You call me strong.. 

------------------------------------------------------------------------------
------------------------------------------------------------------------------
------------------------------------------------------------------------------
------------------------------------------------------------------------------
------------------------------------------------------------------------------
------------------------------------------------------------------------------
  Repeat pattern from 1st verse to chorus.....                                

------------------------------------------------------------------------------
------------------------------------------------------------------------------
------------------------------------------------------------------------------
----------------------9----9-9-9--------2-2-2-2-----4-4-4-4-------------------
----------------------9-x-x9-9-9--------2-2-2-2-x-x-4-4-4-4-------------------
----------------------7-x-x7-7-7-\\--0-0-0-0-x-x-2-2-2-2-\\\-----------
  ....intro to solo...  "Kryptonite!!...                                      

------------------------------------------------------------------------------
------------------------------------------------------------------------------
------------------------------------------------------------------------------
------------------------------------------------------------------------------
----2---4-5-4-5-4-5-7-5-4-5-4-0--2--0--2---0-2-0-------------------4-5-4-5--
----------------------------------------------------2-3-2-3--2-3-2-3----------
    Solo..Gtr2 play Bm,G,A progression.             Palm muted.....  PM...... 

----------------------------------------|-------------------------------------
----------------------------------------|--------------3---------------0------
----------------------------------------|------------4----4---0------2--------
----------------------------------------|----------4--------4-------2---------
-4-5--4-0--2-4---------------//2-------|--------2-----------------0----------
----------------------------------------|----------------------------------3--
 ...       ...Repeat twice....                 .."If I go crazy  (Repeat      

------------------------------------------------------------------------------
------------------------------------------------------------------------------
-----0------------------------------------------------------------------------
---0--------------------------------------------------------------------------
-2----------------------------------------------------------------------------
------------------------------------------------------------------------------
 variation of intro, except after Bm, play Asus2, then G...(twice)            

------------------------------------------------------------------------------
------------------------------------------------------------------------------
------------------------------------------------------------------------------
------------------------------------------------------------------------------
------------------------------------------------------------------------------
------------------------------------------------------------------------------
  Play chorus again...until outro..solo....same as first except slide up to   

------------------------------------------------------------------------------
------------------------------------------------------------------------------
------------------------------------------------------------------------------
------------------------------------------------------------------------------
---\9--7---5--4--2-0--2--0--2--0--------------------4-5-4-5-4-5-4-0--2------
------------------------------------2-3-2-3-2-3-2-3---------------------------
      F#                                                                      

-------------------------0----------------------------------------------------
---------------------------3------0--0----------------------------------------
---------------------4-------4------------------------------------------------
-------------------4------------4---------------------------------------------
--222222---------2------------------------------------------------------------
------------------------------------------------------------------------------
 Sustain...   Arppegiate Bm Chord loosely.....Fade out.                       

		   
AcordesyTabs.com © 2008 Acordes y Tablaturas para guitarra. Tabs and Chords for guitar. Aviso Legal - Contacto
El uso de este sitio está sujeto a la aceptación de los términos y condiciones (32 usuarios online)