tablaturas, partituras y acordes para guitarra
Busca por banda/artista:
 
y/o título de la canción:
A B C D E F G H I J K L M N O P Q R S T U V W X Y Z 0 1 2 3 4 5 6 7 8 9 / Top 100 tabs
Categorías
Usuarios
usuario:
Darse de alta
password:
Artistas más visitados
Publicidad
TOP acordes y tablaturas de Morbid angel


Estás en: Inicio > Letra M > Acordes y tablaturas de Morbid angel > Blood on my hands
Blood on my hands
de Morbid angel
Puntúa este acorde/tab:      
(0.6/5)
Reportar este acorde/tab
  Añadir a tus favoritos
  Imprimir
Tuning Bb

 | -------------------- | --------------------- | 
 | -------------------- | --------------------- | 
 | -------------------- | --------------------- | 
 | -------------------- | --------------------- | 
 | -------------------- | -----------66777777-- | 
 | -666(b9)666(b9)666(b9)6--- | -666(b9)666(b9)66777777-- | 

 | ----------------------- | ------------------------ | 
 | ----------------------- | ------------------------ | 
 | ----------------------- | ------------------------ | 
 | ----------------------- | ------------------------ | 
 | -----------------7----- | -----------------7~-(7)- | 
 | -6667-666(b9)66667(b9)9767- | -6667-666(b9)66667-------- | 


 | ------------------------- | ----------------------------- | 
 | ------------------------- | ----------------------------- | 
 | ------------------------- | ----------------------------- | 
 | -------3/4---4/5-5--(5)- | -------3/4-----5/-108---9- | 
 | ------------------------- | ----------------------------- | 
 | -0-0-0-1/2-0-2/3-3--(3)- | -0-0-0-1/2-0-0-3/--8-0-7- | 

 | ------------------------- | ----------------------------- | 
 | ------------------------- | ----------------------------- | 
 | ------------------------- | ----------------------------- | 
 | -------3/4---4/5-5--(5)- | -------3/4-----5/-108---9- | 
 | ------------------------- | ----------------------------- | 
 | -0-0-0-1/2-0-2/3-3--(3)- | -0-0-0-1/2-0-0-3/--8-0-7- | 

 | ---------------------------- | ---------------------------- | 
 | ---------------------------- | ---------------------------- | 
 | ---------------------------- | ---------------------------- | 
 | ---------------------------- | ---------------------------- | 
 | -2-----5-----7-----9/10(b9)7- | -2-----5-----9/10(b9)--3--3-- | 
 | -0-000-3-333-5-555-7/-8-5- | -0-000-3-333-7/-8-0-1--1-- | 

 | ----------------------- | ----------------------- | 
 | ----------------------- | ----------------------- | 
 | ----------------------- | ----------------------- | 
 | ----------------------- | ----------------------- | 
 | --------------33332222- | --------------44443333- | 
 | -111111111111---------- | -444433332222---------- | 

 | ------------------------------------ | ----------------------------------- | 
 | ------------------------------------ | ----------------------------------- | 
 | ------------------------------------ | ----------------------------------- | 
 | ------------7/8------------9/10(b9) | ------------7/8------------------ | 
 | -8--------5/6-8--------7/-8- | -8--------5/6-8--------8--8-- | 
 | -6-555555-------6-555555-------- | -6-555555-------6-555555-6--6-- | 

 | ------------------------------------ | ---------------------------------------- | 
 | ------------------------------------ | ---------------------------------------- | 
 | ------------------------------------ | ---------------------------------------- | 
 | ------------7/8------------9/10(b9) | ------------7/8----------------------- | 
 | -8--------5/6-8--------7/-8- | -8--------5/6-8-5--5--5--4--4--4-- | 
 | -6-555555-------6-555555-------- | -6-555555-------6-3--3--3--2--2--2-- | 

 | ----------------- | 
 | ----------------- | 
 | ----------------- | 
 | -3~-----5--6--7-- | 
 | ----------------- | 
 | -1~-----3--4--5-- | 

 | ------------------------- | ---------------------- | 
 | ------------------------- | ---------------------- | 
 | ------------------------- | ---------------------- | 
 | ------------------------- | ---------------------- | 
 | -4--4--4--3--333-333-33-- | -4--4--3--333-333-33-- | 
 | -2--2--2--1--111-111-11-- | -2--2--1--111-111-11-- | 

 | ----------------------- | ----------------------- | 
 | ----------------------- | ----------------------- | 
 | ----------------------- | ----------------------- | 
 | ------3/4------5/6- | ------3/4------------ | 
 | ------1/2------3/4- | ------1/2------4--4-- | 
 | -1111-------1111------- | -1111-------1111-2--2-- | 

 | ----------------------- | ----------------------------- | 
 | ----------------------- | ----------------------------- | 
 | ----------------------- | ----------------------------- | 
 | ------3/4------5/6- | ------3/4------------------ | 
 | ------1/2------3/4- | ------1/2------4--4--4--3-- | 
 | -1111-------1111------- | -1111-------1111-2--2--2--1-- |  		   
AcordesyTabs.com © 2008 Acordes y Tablaturas para guitarra. Tabs and Chords for guitar. Aviso Legal - Contacto
El uso de este sitio está sujeto a la aceptación de los términos y condiciones (30 usuarios online)