tablaturas, partituras y acordes para guitarra
Busca por banda/artista:
 
y/o título de la canción:
A B C D E F G H I J K L M N O P Q R S T U V W X Y Z 0 1 2 3 4 5 6 7 8 9 / Top 100 tabs
Categorías
Usuarios
usuario:
Darse de alta
password:
Artistas más visitados
Publicidad
TOP acordes y tablaturas de Morbid angel


Estás en: Inicio > Letra M > Acordes y tablaturas de Morbid angel > Blessed are the sick
Blessed are the sick
de Morbid angel
Puntúa este acorde/tab:      
(1/5)
Reportar este acorde/tab
  Añadir a tus favoritos
  Imprimir
Tuning:Eb

----------------------------------------------------------------------
----------------------------------------------------------------------
--------2-3-5-2-3----3-------2-3-5-2-3-------------2-3-5-2-3---3------
2--3-----------------1--5-----------------2---3----------------1---5--
0--1--------------------3-----------------0---1--------------------3--
----------------------------------------------------------------------

---------------------------------------------------------------
---------------------------------------------------------------
7--/10-------------------------7--/10--------------------------
7--/10--0---3---8---6--0-0-----7--/10--0---3---8---6-------2-1-
5--/8---0-0-1---6---4--0-0-0---5--/8---0-0-1---6---4---3~~-2-1-
5--/8--------------------------5--/8---------------------------

--------------------------------------------
--------------------------------------------
-7--/10-------------------------------------
-7--/10--0---3---8---6----------------------
-5--/8---0-0-1---6---4--0-1-4-3-2-1-3-2-1-0-
-5--/8--------------------------------------

------------------------------------------ --- 
------------------------------------------ --- 
------------------------------------------ -
-2-------0---3---8---6-------------------- --- 
-0--/3~~-0-0-1---6---4----4-3-2-1-3-2-1-0- --- 
------------------------------------------ --- 

------------------------------------------
------------------------------------------
-2-----------3---8---6-------------------
-2-------0---3---8---6------------------
-0--/3~~-0-0-1---6---4----\-------------
---------------------------\------------

the main verse riff:
--------------------------------- ---------------------------------
--------------------------------- ---------------------------------
----------p---------------p------ ---------------------------------
--h--1---2-1----/3~~-----2-1----- -----1---2-1----/3~~-----2-1-----
-0-1---------3-0-----0-0-----3-0- -0-1---------3-0-------------3-0-
--------------------------------- ---------------------------------

--------------------------------- --- --- -------------------------------
--------------------------------- --- --- -------------------------------
--------------------------------- --- --- -------------------------------
-----3----p----*(5~~)-----p------ -%- -----3----p-------------p------
-2-3-1---2-1----/3~~-----2-1----- --- --- -2-3-1---2-1----/4~~~~-5-4-----
-0-1---------3-0-----0-0-----3-0- --- --- -0-1---------3-0-----------6-0-
--------------------------------- --- --- -------------------------------
                * gtr.2 on 1 & 3 times

 ...world of sick...       1,2,3.   4.
-------------------------- -------- --------
-------------------------- -------- --------
-11------10--------------- (b9)------ 9------
-11--11--10--------8---(b9)- (b9)--(b9)-- 9--0---
-(b9)--11--8---1110(b9)8---(b9)- 7---(b9)-- 7--0-0-
-----(b9)------(b9)8-7-6---7-- ----7--- --------

-------------------------------
-------------------------------
-------------------------8(b9)--
-2---3---0-0-------------8(b9)--
-0---1---0-0-------------6/7---
-0---1-------4---5---6---6/7---

2nd guitar:
    a.h             a.h
-------------------------------
-------------------------------
-----5~~-------------5~~-8(b9)--
-2-------0-0-------------8(b9)--
-0-------0-0-2---3-------6/7---
-0-----------------------6/7---

---------------------------------------------
---------------------------------------------
-----------2-3-5-3-2---8---6-----------------
/5---2---0-------------8---6---3------------- 
/3---0---0-----------0-6---4---3-0-1-3-2-1-0-
---------------------------------------------

--------------------------------- ---------------------------------
--------------------------------- ---------------------------------
-----------------8---6----------- -----------------8---6-----------
-5---2---0---0-0-8---6---0-0-2--- -5---2---0---0-0-8---6-----------
-3---0---0---0-0-6---4---0-0-0--- -3---0---0---0-0-6---4---32103210
--------------------------------- ---------------------------------

--------------------------------- ---------------------------------
--------------------------------- ---------------------------------
-----------------8---6----------- -----------------8---6-x---------
-5---2---0---0-0-8---6---0-0-2--- -5---2---0---0-0-8---6-x---------
-3---0---0---0-0-6---4---0-0-0--- -3---0---0---0-0-6---4-x---------
--------------------------------- ---------------------------------

                  **
----------------- ---------------------------------- 
----------------- ---------------------------------- 
----------------- ---------------------------------- 
-5---4---5-4-3-2- -----------3-----2--5---5---3---2-
-3---2---3-2-1-0- /3~~-4---1---2~~-0--3---3---1-110-
---------3-2-1-0- ---------------------------------- 
              
              # 2nd. guitar plays the upper note
----------------------------------- -------------------------------
----------------------------------- -------------------------------
----------------------------------- -------------------------------
------------3-1~~-2--5---5---3---2- -----------3-----2--5--5--3--2-
-/3~~-4---1---2~~-0--3---3-331-110- /3~~-4---1---2~~-0--3--3--1--0-
----------------------------------- -------------------------------

  #   #       #   #   #          ** repeat and fade
----------------------------------- 
----------------------------------- 
--------------------------8(b9)-8-- 
----------0-0-------------8(b9)-8--
-/3~~-4~~-0-0-2~~-3~~-4~~-6/7----
--5~~-6~~-----4~~-5~~-6~~-6/7---- ....
           
the flute part in the end;
---------------------------p-----------------h----------h-----------------------
-----6--7--(b9)-7-(b9)-10--10-9------6-7--6-7-(b9)10---(b9)10--12---10-(b9)10--12---
-7-8---------------------------------8------------------------------------------
--------------------------------------------------------------------------------
--------------------------------------------------------------------------------
--------------------------------------------------------------------------------

   p  p          p  p
-13-11-(b9)------13-11-(b9)---------------h--h------11-------------p------------
---------13------------13--12--10---10-12-13-10------12---(b9)--(b9)7---------
----------------------------------------------------------------------------
----------------------------------------------------------------------------
----------------------------------------------------------------------------
---------------------------------------------------------------------------- 		   
AcordesyTabs.com © 2008 Acordes y Tablaturas para guitarra. Tabs and Chords for guitar. Aviso Legal - Contacto
El uso de este sitio está sujeto a la aceptación de los términos y condiciones (30 usuarios online)