tablaturas, partituras y acordes para guitarra
Busca por banda/artista:
 
y/o título de la canción:
A B C D E F G H I J K L M N O P Q R S T U V W X Y Z 0 1 2 3 4 5 6 7 8 9 / Top 100 tabs
Categorías
Usuarios
usuario:
Darse de alta
password:
Artistas más visitados
Publicidad
TOP acordes y tablaturas de Morbid angel


Estás en: Inicio > Letra M > Acordes y tablaturas de Morbid angel > Ageless still i am
Ageless still i am
de Morbid angel
Puntúa este acorde/tab:      
(0.8/5)
Reportar este acorde/tab
  Añadir a tus favoritos
  Imprimir
Tuning: Eb Ab Db Gb Bb Eb

Note: Listen VERY closely to all the rhythm changes
and all the triplets. This song is SOO Phenomonal!!
/  = slide
.. = palm mute
x = deftone
" = trem.pick

Intro riff
---------------------------- |  | 
---------------------------- |  | 
---------------------------- |  |  gtr.1
---------------------------- |  | 
------------2-1--1---------- |  | 
000-00--2-3-----2-2-5-1-5-1- |  | 
... ..

somewhere he plays:
---------------------------- |  | 
---------------------------- |  | 
---------------------------- |  |  gtr.2
---------------------------- |  | 
-------2-1-------1---------- |  | 
000-00-----3-2--2-2-5-1-5-1- |  | 
... ..

-------------------------------- |  | 
-------------------------------- |  | 
-------------------------------- |  | 
-------------------------------- |  | 
------------2-1--1-2--6-2-6-2--- |  | 
000-00--2-3-----2-2------------- |  | 
... ..

Main Riff 1 (all trem.pick) 4x
----------------------------------- | 
----------------------------------- | 
----------------------------------- | 
----------------------------------- | 
5----3-2-3-2-------5----7-8-10-8--- | 
------------3-0-2------------------ | 
       . . .. . .

Main Riff 2 (after 4x mainriff 1)
----------------------------------------------------- |  | 
----------------------------------------------------- |  | 
----------------------------------------------------o |  | 
----------3---2------------------3------------------o |  | 
5---3--232-5-3-5--0-3--5---3--232-5-10-5-10-5-10-5--- |  | 
----------------------------------------------------- |  | 
       ... . . .  . .         ...

Riff 3
not sure)      ending a)       b)       c)
-------------- | -------- | -------- | -------- | ----------------- |  | 
-------------- | -------- | -------- | -------------------------- |  | 
-------------- | -------- | -------- | -------------------------- |  | 
652----------- | -2"-3"-- | -5"-6"-- | -7"-8"-------------------- |  | 
---542-------- | -------- | -------- | ----------8-7-3-7---0-3--- |  | 
------532-010- | -------- | -------- | -------------------------- |  | 
......... ...                                        . .

Riff 4 (after first solo)
really not sure about this  | 
--------------------------- | 
--------------------------- | 
--------------------------- | 
653-532-------------------- | 
-------542----------------- | 
----------532-421-010-020-- | 
... ......... ... ... ...

-------------------------------------------------- |  | 
-------------------------------------------------- |  | 
-------------------------------------------------o |  | 
-----------------------7x7--8--7-8-11-12-8-11-8--o |  | 
8x8--(b9)8-5-8-5--3-2-3----------------------------- |  | 
-------------------------------------------------- |  | 

Riff 5
                     4x
----------------------- | -------------- |  | 
----------------------- | -------------- |  | 
----------------------- | -------------- |  | 
----------------------- | --8--8--8--8-- |  |  gtr.1
--3---4----3-5-4-3-4-3- | -5--5--5--5--- |  | 
/2------/2------------- | -------------- |  | 

**second solo**

Then back to Mainriff 1&2

last solo

End. 		   
AcordesyTabs.com © 2008 Acordes y Tablaturas para guitarra. Tabs and Chords for guitar. Aviso Legal - Contacto
El uso de este sitio está sujeto a la aceptación de los términos y condiciones (24 usuarios online)