tablaturas, partituras y acordes para guitarra
Busca por banda/artista:
 
y/o título de la canción:
A B C D E F G H I J K L M N O P Q R S T U V W X Y Z 0 1 2 3 4 5 6 7 8 9 / Top 100 tabs
Categorías
Usuarios
usuario:
Darse de alta
password:
Artistas más visitados
Publicidad
TOP acordes y tablaturas de Morbid angel


Estás en: Inicio > Letra M > Acordes y tablaturas de Morbid angel > Angel of disease
Angel of disease
de Morbid angel
Puntúa este acorde/tab:      
(0.3/5)
Reportar este acorde/tab
  Añadir a tus favoritos
  Imprimir
--riff1---------------8x-- | -riff2---------------------------------------------- | 
-------------------------- | ---------------------------------------------------- | 
.----7---(b9)--10----------. | .-----------------/6-6-5-------------------/6-6-7--. | riff1
.----7---(b9)--10--109/10-. | .-2---------5-----/6-6-5--2---------5------/6-6-7--. | 
-000-5-0-7-0-8-0-109/10-- | --2---------5-----/4-4-3--2---------5------/4-4-5--- | riff2
-----------------8-/8--- | --0-0-0-0-0-3--0-0--------0-0-0-0-0-3--0-0---------- | 

--riff3------------------------ | ------------------------ | -riff4---------8x- | 
------------------------------- | ------------------------ | ------------------ | 
.------------------------------ | -----------------------. | .----------------. | riff3
.-----7--------5----------- | ------7-------5----. | .----------------. | 
-8--5---6--3---5-6- | -8--5--6--3-5--- | -7---7---------5-- | riff4
-6-x----x-4-x----x-3-4- | -6-x---x-4-x----3--- | ---8---7-8-5-7---- | 

--riff5------------- | ----- | --------------------------------- | -solo4-rythem--riff6--8x- | -
-------------------- | ----- | --------------------------------- | ------------------------- | -
.------------------. | riff4 | --------------------------------- | .-----------------------. | -
.------------------. | ----- | --------------------------------- | .-2---4--6/7--3-------. | -
-(b9)---7----------7-- | ----- | -5---3--------------------------- | --0-3-2--4/5--1--1-1-1- | -
---10---(b9)10-7-(b9)--- | ----- | ---6---5-6-3-5-0-3-5-0-3-5-0-3-5- | ----1-------------------- | -
                                               ______________________________
                                                      1.-3.  |  2.-4.                                 
-solo5-rythem--riff7----------- | ---------------------------- | --------(b9)8----------------
------------------------------- | -----------------------543~~ | ---10-10-------------------
------------------------------- | ------------------0-2-4----. | --(b9)-(b9)--------------------
-----/4-3-----------/5-4------- | -----/4-3-------2----------. | -7-------------------------
-2---/2-1-1-1-1--2--/3-2-2-2-2- | -2---/2-1-1-1-1------------- | ---------------------------
-0-00------------0-0----------- | -0-00----------------------- | ---------------------------

--riff8------ | -----------10x- | riff11-------------------------------------7x-- | riff1
---------)--- | --------------- | ----------------------------------------------- | riff2x2 
--2-----5-~~- | --2------------ | .---------------------------------------------. | riff1
--2--4--5-~~- | --2---4-------- | .2----2-----2-----2-------------------------5-. | riff2
--0--4------- | --0---4-------- | -0-00-0-000-0-000-0-5--4----4-----4------4--3-- | riff1
-----2------- | ------2-------- | --------------------3--2-22-2-222-2-222--2----- | riff2... 		   
AcordesyTabs.com © 2008 Acordes y Tablaturas para guitarra. Tabs and Chords for guitar. Aviso Legal - Contacto
El uso de este sitio está sujeto a la aceptación de los términos y condiciones (21 usuarios online)