tablaturas, partituras y acordes para guitarra
Busca por banda/artista:
 
y/o título de la canción:
A B C D E F G H I J K L M N O P Q R S T U V W X Y Z 0 1 2 3 4 5 6 7 8 9 / Top 100 tabs
Categorías
Usuarios
usuario:
Darse de alta
password:
Artistas más visitados
Publicidad
TOP acordes y tablaturas de Fall out boy


Estás en: Inicio > Letra F > Acordes y tablaturas de Fall out boy > Sugar we're going down
Sugar we're going down
de Fall out boy
Puntúa este acorde/tab:      
(0.5/5)
Reportar este acorde/tab
  Añadir a tus favoritos
  Imprimir
Intro: 
g |  -------------------------------------------------- 
d |  -------------------------------------------------- x4 
a |  --55555555---------------------------------------- 
e |  --------------33333333-----77777777-----33333333-- 
 
Verse: 
g |  ------------------------------------------------- 
d |  ------------------------------------------------- 
a |  --555555----------------------------------------- 
e |  --------------333333--------777777------333333--- 
 
Pre-Chorus: Drop a heart... 
 
g |  xxxxxxxxxxxxxxxxxxxxxxxxxxxxxxxxxxxxxxxxxxxxxxxx 
d |  xxxxxxxxxxxxxxxxxxxxxxxxxxxxxxxxxxxxxxxxxxxxxxxx 
a |  xxxxxxxxxxxxxxxxxxxxxxxxxxxxxxxxxxxxxxxxxxxxxxxx 
e |  xxxxxxxxxxxxxxxxxxxxxxxxxxxxxxxxxxxxxxxxxxxxxxxx 
 
Chorus: 
g |  ------------------------------------------------ 
d |  ------------------------------------------------ 
a |  --55555555-------------------------------------- 
e |  ------------33333333------77777777-----3333333-- 
 
Chorus continued: 
g |  -------------------------------------------------- 
d |  -------------------------------------------------- 
a |  --5555--5555-------------------------------------- 
e |  --------------3333--3333---7777--7777--3333--3333- 

Pre-Verse: 
g |  -------------------------------------------------- 
d |  -------------------------------------------------- 
a |  -------------------------------------------------- 
e |  --222-33-33---55---77-7-888-77-x----3------------- 
 
Verse , Chorus and Chorus continued Repit 
 
Interlude: 
g |  ------------------------------------------------- 
d |  ------------------------------------------------- 
a |  ------------------5------------------------------ 
e |  -222-2--3----3-------------3---------33---------- 
 
Interlude continued: 
 
g |  ------------------------------------------------- 
d |  ------------------------------------------------- 
a |  --5555--5555------------------------------------- 
e |  -------------3333--3333---7777--7777---3333--3333 
 
Chorus Ultimate: 
g |  ------------------------------------------------- 
d |  ------------------------------------------------- 
a |  --55555555--------------------------------------- 
e |  -------------33333333-----77777777------33333333- 
 
Outro: 
g |  ------------------------------------------------- 
d |  ------------------------------------------------- 
a |  ------------------------------------------------- 
e |  --------222-2--3--------------------------------- 		   
AcordesyTabs.com © 2008 Acordes y Tablaturas para guitarra. Tabs and Chords for guitar. Aviso Legal - Contacto
El uso de este sitio está sujeto a la aceptación de los términos y condiciones (31 usuarios online)