tablaturas, partituras y acordes para guitarra
Busca por banda/artista:
 
y/o título de la canción:
A B C D E F G H I J K L M N O P Q R S T U V W X Y Z 0 1 2 3 4 5 6 7 8 9 / Top 100 tabs
Categorías
Usuarios
usuario:
Darse de alta
password:
Artistas más visitados
Publicidad
TOP acordes y tablaturas de Rammstein


Das modell
de Rammstein
Puntúa este acorde/tab:      
(0.6/5)
Reportar este acorde/tab
  Añadir a tus favoritos
  Imprimir
Tuning: Dropped D
 
 
Verses: 
When he starts singing the first verse, you stop playing untill he stops singing.                                                
E|--------------------------------------------------- 
B|--------------------------------------------------- 
G|--------------------------------------------------- 
D|x-x-x-x-5-x-x-x-x-8-x-x-8-x-x-x-x-0-x-x-x-x-3-x-x-3 
A|x-x-x-x-5-x-x-x-x-8-x-x-8-x-x-x-x-0-x-x-x-x-3-x-x-3 
D|x-x-x-x-5-x-x-x-x-8-x-x-8-x-x-x-x-0-x-x-x-x-3-x-x-3  
 
After verses: 
 
E|-------------------------------------- 
B|-------------------------------------- 
G|-------------------------------------- 
D|/8--/7--/3-/3---/8--/7--/12----------- 
A|/8--/7--/3-/3---/8--/7--/12--(b9)--10-12 
D|/8--/7--/3-/3---/8--/7--/12----------- 
 
You can also play it in normal tuning, like this: 
 
Verses: 
 
E|--------------------------------------------------- 
B|--------------------------------------------------- 
G|--------------------------------------------------- 
D|x-x-x-x-5-x-x-x-x-8-x-x-8-x-x-x-x-0-x-x-x-x-3-x-x-3 
A|x-x-x-x-5-x-x-x-x-8-x-x-8-x-x-x-x-0-x-x-x-x-3-x-x-3 
D|x-x-x-x-3-x-x-x-x-6-x-x-6-x-x-x-x---x-x-x-x-1-x-x-1 
 
After verses: 
 
E|-------------------------------------- 
B|-------------------------------------- 
G|-------------------------------------- 
D|/8--/7--/3-/3---/8--/7--/12----------- 
A|/8--/7--/3-/3---/8--/7--/12--(b9)--10-12 
D|/6--/5--/1-/1---/6--/5--/10-----------		   
AcordesyTabs.com © 2008 Acordes y Tablaturas para guitarra. Tabs and Chords for guitar. Aviso Legal - Contacto
El uso de este sitio está sujeto a la aceptación de los términos y condiciones (12 usuarios online)