tablaturas, partituras y acordes para guitarra
Busca por banda/artista:
 
y/o título de la canción:
A B C D E F G H I J K L M N O P Q R S T U V W X Y Z 0 1 2 3 4 5 6 7 8 9 / Top 100 tabs
Categorías
Usuarios
usuario:
Darse de alta
password:
Artistas más visitados
Publicidad
TOP acordes y tablaturas de Stratovarius


Estás en: Inicio > Letra S > Acordes y tablaturas de Stratovarius > The hills have eyes
The hills have eyes
de Stratovarius
Puntúa este acorde/tab:      
(0.3/5)
Reportar este acorde/tab
  Añadir a tus favoritos
  Imprimir
Tune Down 1/2 step !
                              x2                    x2
E | -------------------------------------------------------12-11\---------------------- | 
B | ----------------- | ---------------------- | --------------------------- | ------------------- | 
G | --Keyboard-intro- | ---------------------- | --------------------------- | ------------------- | 
D | ----(53-sec)----- | -11------------(b9)-8--- | -11------------(b9)-8-------- | --11~~------------- | 
A | ----------------- | --(b9)--10---7---7--6--- | --(b9)--10---7---7--6-------- | ---9~~------------- | 
E | -------------------------8---5------------------8---5----------------------------------- | 

                                                           Riff 1
E | ---------------------------------------------------------------------------------------- | 
B | --------------------------------------------------------------------------- | ------------ | 
G | --------------------------------------------------------------------------- | *----------- | 
D | ----------4---------------A.H.-----------4--------------------------------- | *----4------ | 
A | --4----------4-5---5-4-2--4--2-0------------4-5---5-4-2-4-4-2-2-0-0------- | ---------4-5 | 
E | --2--2-2---2-----2---------------4--2-2---2-----2-------------------4-4-----2-2---2---- | 
        pm  pm    pm                     pm  pm    pm         pm.............. |      pm  pm

                                           x3
E | ---------------------------------------------------------------------------------------- | 
B | --------------------------------------------------------- | ------------------------------ | 
G | --------------------------------------------------------* | ------------------------------ | 
D | ---------A.H.-----------4-------------------------------* | --4----------------4-------4-- | 
A | ---5-4-2--4--2-0------------4-5---5-4-2-4-4-2-2-0-0------ | --2---4--5-------------------- | 
E | -2---------------4--2-2---2-----2-------------------4-4---------2--3---2-2-2---2-2-2---- | 
 pm                   pm  pm    pm      pm.............. |               pm.... |  pm.... |     

                                                      x2 Verse 1
E | ---------------------------------------------------------------------------------------- | 
B | -------------------------------------------------------------- | -------- | ---------------- | 
G | -------------------------------------------------------------- | -Riff-1- | *--------------- | 
D | --------4-------4----4---------------------------------------- | -------- | *-------------4- | 
A | ---------------------2---4--5---7-----------------7-----A.H.-- | -------- | --4~------------ | 
E | --2-2-2---2-2-2----------2--3---5-5-5-5-5-5-5-5-5-5--5-0-3----------------2~------2-2--- | 
 pm..... |  pm.... |                  pm.............. |                                  pm
                                                x2  Bridge
E | ---------------------------------------------------------------------------------------- | 
B | --------------------------------------------------------------- | ------------------------ | 
G | --------------------------------------------------------------* | ------------------------ | 
D | ---------------A.H.-----------4-------------------------------* | --4----------------4---- | 
A | ---4-5---5-4-2--4--2-0------------4-5---5-4-2-4-4-2-2-0-0------ | --2---4--5-------------- | 
E | -2-----2---------------4--2-2---2-----2-------------------4-4---------2--3---2-2-2---2-2 | 
 pm    pm                   pm  pm    pm      pm.............. |               pm.... |  pm.. | 
                                                         x2
E | ---------------------------------------------------------------------------------------- | 
B | ------------------------------------------------------------------- | -------- | ----------- | 
G | ------------------------------------------------------------------- | -Riff-1- | --Verse | -2-- | 
D | ---4--------4-------4----4----------------------------------------- | -------- | ----------- | 
A | -------------------------2---4--5---7-------------------7-----A.H.- | -------- | ----------- | 
E | -2----2-2-2---2-2-2----------2--3---5-5-5-5-5-5-5-5-5-5-5--5-0-3------------------------ | 
pm    pm.... |  pm.... |                  pm................ | 

            Riff 2                 Chorus
E | ---------------------------------------------------------------------------------------- | 
B | --------- | ----------------------- | ------------------------------------------------------ | 
G | --Bridge | - | ----------------------- | ------------------------------------------------------ | 
D | --------- | ------4------(b9)-7--6--- | --7-7--6-----6--7-6-4-6---7-7--6---------------------- | 
A | --------- | ----4---3-0--7--5--4--- | --5-5--4-4-4-4--5-4-2-4---5-5--4-4-4-4--4-4-4--4-4-4-- | 
E | ------------2--------------------------------------------------------------------------- | 
                                 pm.. |                    pm.. |   pm.. |   pm.. |   

E | ---------------------------------------------------------------------------------------- | 
B | ---------------------------------------------------------------------------------------- | 
G | ---------------------------------------------------------------------------------------- | 
D | ------------------------------4------6-----6-7-6-4-6----7-7--6-----6--7-6-4-6---7-7--6-- | 
A | -4-4-4--4-4-4--4-4-4--4-4-4---2------4-4-4-4-5-4-2-4----5-5--4-4-4-4--5-4-2-4---5-5--4-4 | 
E | ---------------------------------------------------------------------------------------- | 
 pm.. |   pm.. |   pm.. |   pm.. |             pm.. |                      pm.. |                  pm

E | ---------------------------------------------------------------------------------------- | 
B | ---------------------------------------------------------------------------------------- | 
G | ---------------------------------------------------------------------------------------- | 
D | -------------------------------------------------4-------2------------------------------ | 
A | -4-4--4-4-4--4-4-4--4-4-4--4-4-4--4-4-4--4-4-4---2-2-2-2-0--6-------5--4-------5-2-4-5-- | 
E | ------------------------------------------------------------4-4-4-4-3--2-2-2-2-3-0-2-3-- | 
 pm   pm.. |   pm.. |   pm.. |   pm.. |   pm.. |   pm.. |      pm.... |     pm.... |     pm.... | 

             Guitar Solo
E | -----------------------------------------------------10-(b9)-/12--10p9h10p(b9)-(b9)10-(b9)------ | 
B | ----------- | ----------------------------------------------------------------------12-10- | 
G | ----------- | --/7--6--4------------------------------------------------------------------ | 
D | ----------- | ------------7--5--4--5-4---------------------------------------------------- | 
A | -4-----4--- | -------------------------7-5-4---------------------------------------------- | 
E | -2-2-2-2-----------------------------------7-5-3-2-------------------------------------- | 
   pm.. |                          pm................ | 

E | ----9~---------------------------------------------17-1(b9)21b(22)-r21--1(b9)17-15-14~~--12- | 
B | -12-----12-10--------------------------------1(b9)20-------------------------------------- | 
G | --------------12-11h12p11p(b9)---------(b9)11~---------------------------------------------- | 
D | ----------------------------12-11-12---------------------------------------------------- | 
A | ---------------------------------------------------------------------------------------- | 
E | ---------------------------------------------------------------------------------------- | 

E | -------------------------------------------12----12-14-12-14-15-14-15-17-15-17-1(b9)17-1(b9) | 
B | -15-14-12-14h15p14p12-------12-14-15-14-15----15---------------------------------------- | 
G | ----------------------15~--------------------------------------------------------------- | 
D | ---------------------------------------------------------------------------------------- | 
A | ---------------------------------------------------------------------------------------- | 
E | ---------------------------------------------------------------------------------------- | 

E | -21-21b(22)r21~~---------17-1(b9)21-1(b9)17----------------17-1(b9)17------------------------- | 
B | -------------------1(b9)21----------------21-1(b9)17-1(b9)21----------21-1(b9)21~~~~- | ---------- | 
G | ----------------------------------------------------------------------------- | --Chorus-- | 
D | ----------------------------------------------------------------------------- | ---------- | 
A | ----------------------------------------------------------------------------- | ---------- | 
E | ---------------------------------------------------------------------------------------- | 

E | ---------------------------------------------------------------------------------------- | 
B | ---------------------------------------------------------------------------------------- | 
G | ---------------------------------------------------------------------------------------- | 
D | -4-------2-------------------------------------------4-------2-------------------------- | 
A | -2-2-2-2-0--6-------5--4----4--5-5--2-4-5-4-----4----2-2-2-2-0--6-------5--4------------ | 
E | ------------4-4-4-4-3--2-22-2--3-3--0-2-3-2-2-2-2---------------4-4-4-4-3--2-222-222-223 | 
   pm.... |     pm.... |     pm. |                pm.. |       pm.... |     pm.... |     pm.......... | 

E | --------------------------------------------- | 
B | --------------------------------------------- | 
G | --------------------------------------------- |  end
D | ----------------4-----2---------------------- | 
A | ---------4-4----2-----0-----6-----5~~-------- | 
E | -0-2-3-2-2-2----------------4-----3~~-------- | 
              

Rhythm Guitar During Guitar Solo      
                                        x3
E | --------------------------------------------------------------------------------------- | 
B | ------------------------------------------ | -------------------------------------------- | 
G | ------------------------------------------ | -------------------------------------------- | 
D | -4-------6--7-------(b9)-------11----------- | -4-------6--7-------(b9)-7-----7-----7-(b9)7-6-- | 
A | -2-2-2-2-4--5-5-5-5-7---------(b9)--------4- | -2-2-2-2-4--5-5-5-5-7--5-5-5-5-5-5-5-7-5-4-- | 
E | ----------------------2-2-2-2---2-2-2-2-2---------------------------------------------- | 
   pm.... |     pm.... |    pm.... |    pm.... |      pm.... |     pm.... |     pm.. |  pm.. | 


TABLAURE EXPLANATION
**********************
pm.. |  = Palm mute

p = Pull off

h = Hammer on

b() = bend

A.H. = Artificial Harmonic

/ = Slide up

 = Slide down

~~~~ = vibrato

 |       | 
 |       | 
 | *   * |  = repeat from * to *
 | *   * |  
 |       |  		   
AcordesyTabs.com © 2008 Acordes y Tablaturas para guitarra. Tabs and Chords for guitar. Aviso Legal - Contacto
El uso de este sitio está sujeto a la aceptación de los términos y condiciones (26 usuarios online)