tablaturas, partituras y acordes para guitarra
Busca por banda/artista:
 
y/o título de la canción:
A B C D E F G H I J K L M N O P Q R S T U V W X Y Z 0 1 2 3 4 5 6 7 8 9 / Top 100 tabs
Categorías
Usuarios
usuario:
Darse de alta
password:
Artistas más visitados
Publicidad
TOP acordes y tablaturas de The beatles


Estás en: Inicio > Letra T > Acordes y tablaturas de The beatles > Don't let me down
Don't let me down
de The beatles
Puntúa este acorde/tab:      
(0.4/5)
Reportar este acorde/tab
  Añadir a tus favoritos
  Imprimir
Intro:
|---------------------------------------|
|---------------------------------------|
|-------------(b9)--(b9)---(b9)---------------|
|-------------(b9)--9h11-(b9)---------------|
|--------9h11----------------(b9)-12--11--|
|-0-------------------------------------|



(Notes are synchronized with lyrics)

(Note: the E chord might be done in E7M)


              F#m                E
 Don't let me down, don't let me down
|-------------------------------------------------------------------|
|-------------------------------------------------------------------|
|-----------------------------------------(b9)--(b9)---(b9)---------------|
|-----------------------------------------(b9)--9h11-(b9)---------------|
|------------------------------------9h11----------------(b9)-12--11--|
|-------------------------------------------------------------------|

              F#m                E
 Don't let me down, don't let me down
|-------------------------------------------------------------------|
|-------------------------------------------------------------------|
|-----------------------------------------(b9)--(b9)---(b9)---------------|
|-----------------------------------------(b9)--9h11-(b9)---------------|
|------------------------------------9h11----------------(b9)-12--11--|
|-------------------------------------------------------------------|



 Nobody ever loves me like she does
 
 Guitar I
|------------------------------14
--12---12(b9)-(b9)---------------------------------------------------|
|------------------------------14
--12---12(b9)-(b9)--10-----------------------------------------------|
|--------------------------------------------------------11(b9)-(b9)--9--6--6/8--8---------------------|
|-----------------------------------------------------------------------------------------------------|
|-----------------------------------------------------------------------------------------------------|
|-----------------------------------------------------------------------------------------------------|
|Guitar II
|-----------------------------------------------------------------------------------------------------|
|---------------------------------------------------------------------------------------5------5------|
|-----------------------------------------------------------------------------------------------------|
|-------------------------------------------------------------------------------6---6h7----6h7---7--6-|
|-----------------------------------------------------------------------------------------------------|
|-----------------------------------------------------------------------------------------------------|


 And if somebody ever   ... do me

 Guitar I
|---------------------------14
--12---12(b9)-(b9)-------------------------------------------4--4-------|
|---------------------------14
--12---12(b9)-(b9)-10--10-7--7---7--4--2/5--4---5-------5--5-------|
|-----------------------------------------------------9-6--6---6--4--2/4--4---4---4h6-4--4--6----|
|---------------------------------------------------------------------------------------------------6-|
|-----------------------------------------------------------------------------------------------------|
|-----------------------------------------------------------------------------------------------------|
|Guitar II
|-----------------------------------------------------------------------------------------------------|
|---------------------------------------------------------------------------------------5------5------|
|-----------------------------------------------------------------------------------------------------|
|-------------------------------------------------------------------------------6---6h7----6h7---7--6-|
|-----------------------------------------------------------------------------------------------------|
|-----------------------------------------------------------------------------------------------------|


              F#m                E
 Don't let me down, don't let me down
|-------------------------------------------------------------------|
|-------------------------------------------------------------------|
|-----------------------------------------(b9)--(b9)---(b9)---------------|
|-----------------------------------------(b9)--9h11-(b9)---------------|
|------------------------------------9h11----------------(b9)-12--11--|
|-------------------------------------------------------------------|

              F#m                E
 Don't let me down, don't let me down
|-------------------------------------------------------------------|
|-------------------------------------------------------------------|
|-----------------------------------------(b9)--(b9)---(b9)---------------|
|-----------------------------------------(b9)--9h11-(b9)---------------|
|------------------------------------9h11----------------(b9)-12--11--|
|-------------------------------------------------------------------|



(From "I'm in love for the first time")
|----------------------------------------------------------------------------------------------|
|----------------------------------------------------------------------------------------------|
|---------------------------------------------------------1h2----------------------------------|
|-2--1-----2--------2--------2-----2-----2--------4--1--------4-----6-2-----4--1--2-----1-----|
|-------------4--------2--------------------2-----------------------------------------4-----2--|
|-------------------------------4-----2--------------------------------------------------------|

 Guitar I
|------------------------------------------------------------------------------|
|------------------------------------------------------------------------------|
|----------2-------------------------------------------------------------------|
|-4--1--------4-----6-2-----4--1--2-----1-------------------------------------|
|-------------------------------------4----------------------------------------|
|-------------------------------------------0----------------------------------|
|Guitar II
|------------------------------------------------------------------------------|
|------------------------------------------------------------------------------|
|----------------------------------------------------(b9)--(b9)---(b9)---------------|
|----------------------------------------------------(b9)--9h11-(b9)---------------|
|-----------------------------------------------9h11----------------(b9)-12--11--|
|------------------------------------------------------------------------------|



              F#m                E
 Don't let me down, don't let me down
|-------------------------------------------------------------------|
|-------------------------------------------------------------------|
|-----------------------------------------(b9)--(b9)---(b9)---------------|
|-----------------------------------------(b9)--9h11-(b9)---------------|
|------------------------------------9h11----------------(b9)-12--11--|
|-------------------------------------------------------------------|

              F#m                E
 Don't let me down, don't let me down
|-------------------------------------------------------------------|
|-------------------------------------------------------------------|
|-----------------------------------------(b9)--(b9)---(b9)---------------|
|-----------------------------------------(b9)--9h11-(b9)---------------|
|------------------------------------9h11----------------(b9)-12--11--|
|-------------------------------------------------------------------|



 And from the first    ... done me

 Guitar I
|---------------------------14
--12---12(b9)-(b9)------------------------------------------------------|
|---------------------------14
--12---12(b9)-(b9)-10--10-7--7---7--4--2/5--4----------------------|
|-----------------------------------------------------9-6--6---7--4--2/4--4----------------------|
|-----------------------------------------------------------------------------------------------------|
|-----------------------------------------------------------------------------------------------------|
|-----------------------------------------------------------------------------------------------------|
|Guitar II
|-----------------------------------------------------------------------------------------------------|
|---------------------------------------------------------------------------------------5------5------|
|-----------------------------------------------------------------------------------------------------|
|-------------------------------------------------------------------------------6---6h7----6h7---7--6-|
|-----------------------------------------------------------------------------------------------------|
|-----------------------------------------------------------------------------------------------------|


I guess nobody ever     ... done me

 Guitar I
|---------------------------14
--12---12(b9)-(b9)------------------------------------------------------|
|---------------------------14
--12---12(b9)-(b9)-10--10-7--7---7--4--2/5-----5---5-----5---------|
|-----------------------------------------------------9-6--6---7--4--2/4---------4h6---4h6--4----|
|------------------------------------------------------------------------------6-------------------6--|
|-----------------------------------------------------------------------------------------------------|
|-----------------------------------------------------------------------------------------------------|
|Guitar II
|-----------------------------------------------------------------------------------------------------|
|---------------------------------------------------------------------------------------5------5------|
|-----------------------------------------------------------------------------------------------------|
|-------------------------------------------------------------------------------6---6h7----6h7---7--6-|
|-----------------------------------------------------------------------------------------------------|
|-----------------------------------------------------------------------------------------------------|


              F#m                E
 Don't let me down, don't let me down
|-------------------------------------------------------------------|
|-------------------------------------------------------------------|
|-----------------------------------------(b9)--(b9)---(b9)---------------|
|-----------------------------------------(b9)--9h11-(b9)---------------|
|------------------------------------9h11----------------(b9)-12--11--|
|-------------------------------------------------------------------|

              F#m                E
 Don't let me down, don't let me down
|-------------------------------------------------------------------|
|-------------------------------------------------------------------|
|-----------------------------------------(b9)--(b9)---(b9)---------------|
|-----------------------------------------(b9)--9h11-(b9)---------------|
|------------------------------------9h11----------------(b9)-12--11--|
|-------------------------------------------------------------------|


Piano Solo Chords:

F#m    E    F#m    E


 Outro:
|---------------------------------|
|---------------------------------|
|-------(b9)--(b9)---(b9)---------------|
|-------(b9)--9h11-(b9)---------------|
|--9h11----------------(b9)-12--11--|
|---------------------------------|		   
AcordesyTabs.com © 2008 Acordes y Tablaturas para guitarra. Tabs and Chords for guitar. Aviso Legal - Contacto
El uso de este sitio está sujeto a la aceptación de los términos y condiciones (37 usuarios online)