tablaturas, partituras y acordes para guitarra
Busca por banda/artista:
 
y/o título de la canción:
A B C D E F G H I J K L M N O P Q R S T U V W X Y Z 0 1 2 3 4 5 6 7 8 9 / Top 100 tabs
Categorías
Usuarios
usuario:
Darse de alta
password:
Artistas más visitados
Publicidad
TOP acordes y tablaturas de Sepultura


Drug me
de Sepultura
Puntúa este acorde/tab:      
(0.5/5)
Reportar este acorde/tab
  Añadir a tus favoritos
  Imprimir
e|-------------------------------| 
B|-------------------------------| 
G|-------------------------------| 
D|--------------3-3---------3-3--| 
A|--------------1-1---------1-1--| 
E|--0-0-0-0-...-----0-0-0-0------| 
 
e|-----------------------------| 
B|-----------------------------| 
G|-----------------------------| 
D|-----------------------6666--| 
A|----------7777---------------| 
E|--0-0-0-0------0-0-0-0-------| 
 
e|-----------| 
B|-----------| 
G|-----------| 
D|--8-6-8-(b9)-| 
A|--6-4-6-7--| 
E|--6-4-6-7--| 
 
e|----------------------------------------| 
B|----------------------------------------| 
G|----------------------------------------| 
D|----------------------------------------| 
A|----------------------------------------| 
E|--0-0-0-0-...--(b9)6-7-6-0-0-0-0-(b9)6-7-6--| 
 
e|-------------------------------------------------| 
B|-------------------------------------------------| 
G|-------------------------------------------------| 
D|-----------------------6666----------9999999(b9)---| 
A|----------7777-----------------------------------| 
E|--0-0-0-0------0-0-0-0------0-0-0-0--------------| 
 
e|--------------------------------|-----------| 
B|--------------------------------|-----------| 
G|--------------------------------|-----------| 
D|--------------------------------|-----------| 
A|--------------------------------|-----------| 
E|--0-0-0-0-...--6-6-...-4-4-...--|--7-7-6-6--|		   
AcordesyTabs.com © 2008 Acordes y Tablaturas para guitarra. Tabs and Chords for guitar. Aviso Legal - Contacto
El uso de este sitio está sujeto a la aceptación de los términos y condiciones (32 usuarios online)