tablaturas, partituras y acordes para guitarra
Busca por banda/artista:
 
y/o título de la canción:
A B C D E F G H I J K L M N O P Q R S T U V W X Y Z 0 1 2 3 4 5 6 7 8 9 / Top 100 tabs
Categorías
Usuarios
usuario:
Darse de alta
password:
Artistas más visitados
Publicidad
TOP acordes y tablaturas de Life theory


Estás en: Inicio > Letra L > Acordes y tablaturas de Life theory > I make everything for you
I make everything for you
de Life theory
Puntúa este acorde/tab:      
(0.3/5)
Reportar este acorde/tab
  Añadir a tus favoritos
  Imprimir
Introdução em C
Guitarra I
                                        

E|-0--0-------0-------0---0-------0--------
B|-1----1---1---1---1-------1---1----------
G|-0------0-------0-----------0------------
D|-2---------------------------------------
A|-3--------------------3-----------3~-----
E|-----------------------------------------


E|----------0--------
B|--------0---0------
G|------0-------0----
D|----2-----------2--
A|-------------------
E|-0----------------0

Guitarra II

E|------------------------------------------
B|------------------------------------------
G|-----5-------5-------5-------5-------5----
D|---5---5---5---5---5---5---5---5---5---5--
A|-3-------3-------3-------3-------3-------3
E|------------------------------------------


E|-------------------------------------------
B|-------------------------------------------
G|-----(b9)------(b9)------(b9)------(b9)------(b9)----
D|---(b9)--(b9)--(b9)--(b9)--(b9)--(b9)--(b9)--(b9)--(b9)--(b9)--
A|-7-------7-------7-------7-------7-------7-
E|-------------------------------------------

Guitarra I

E|-------0--------------
B|-----1---1---3-------1
G|---0-------0---0---0--
D|-----------------2----
A|-3--------------------
E|----------------------

E|---------3------
B|----------------
G|------0----0----
D|----2--------2--
A|----------------
E|-0-------------0


Guitarra II

E|-----------------------------
B|-----------------------------
G|-5X5-5-5-5/-9X(b9)(b9)(b9)9X-------
D|-5X5-5-5-5/-9X(b9)(b9)(b9)9X-------
A|-3X3-3-3-3/-7X7-7-7-7X-------
E|-----------------------------

E|-------------------------------------------
B|-------------------------------------------
G|-------------------------------------------
D|-------3-5-3------------------7-(b9)7--------
A|-3-3-6-------6-5-3--/--7-7-10-------10-(b9)7~
E|-------------------------------------------		   
AcordesyTabs.com © 2008 Acordes y Tablaturas para guitarra. Tabs and Chords for guitar. Aviso Legal - Contacto
El uso de este sitio está sujeto a la aceptación de los términos y condiciones (19 usuarios online)