tablaturas, partituras y acordes para guitarra
Busca por banda/artista:
 
y/o título de la canción:
A B C D E F G H I J K L M N O P Q R S T U V W X Y Z 0 1 2 3 4 5 6 7 8 9 / Top 100 tabs
Categorías
Usuarios
usuario:
Darse de alta
password:
Artistas más visitados
Publicidad
TOP acordes y tablaturas de Julliete and the licks


Estás en: Inicio > Letra J > Acordes y tablaturas de Julliete and the licks > You're speakin' my language
You're speakin' my language
de Julliete and the licks
Puntúa este acorde/tab:      
(1/5)
Reportar este acorde/tab
  Añadir a tus favoritos
  Imprimir
intro:
This one goes out...to the entire world
E | -5-5--------------3-3-3-3------ | 
A | -7-7----3-3—7-7---5-5-5-5------ | 
D | -7-7----5-5—5-5---5-5-5-5------ |   repeat6x's (on the 2nd x time guitar
G | ---------5-5—5-5--------------- |   2comes in)
B | ------------------------------- | 
e | ------------------------------- | 

I know you think you know me better than that
I beat your dog 'cause he hit on my cat

Guitar 2 plays
E | --5-5--- | 
A | --7-7--- | 
D | --7-7--- | 
G | -------- | 
B | -------- | 
e | -------- | 

I wipe my face off and give your kisses back, baby.

Pre | -Chours
E | -5-5--------------3-3-3-3-/4-4-4-4- | 
A | -7-7----3-3—7-7---5-5-5-5-/6-6-6-6- | 
D | -7-7----5-5—5-5---5-5-5-5-/6-6-6-6- | 
G | ---------5-5—5-5------------------- | 
B | ----------------------------------- | 
e | ----------------------------------- | 

You're speakin' my language baby
You're speakin' my language baby
You're speakin' my language baby
Keep the pinball rollin'.

E | -5-5--------------3-3-3-3------- | 
A | -7-7----3-3—7-7---5-5-5-5------- | 
D | -7-7----5-5—5-5---5-5-5-5------- |   repeat4x's
G | --------5-5—5-5----------------- | 
B | -------------------------------- | 
e | -------------------------------- | 

All the boys and all of the girls
Quit your drugs
Shake it up
Rule the world
I wanna feed you like a bunch of baby birds
Punch your mind
Make sure that you heard
Another reckless little don't ya know

E | -5-5--------------3-3/5/3------- | 
A | -7-7----3-3—7-7---5-5/7/5------- | 
D | -7-7----5-5—5-5---5-5/7/5------- |   repeat6x's (on the 2nd x time guitar
G | --------5-5—5-5----------------- |   2comes in)
B | -------------------------------- | 
e | -------------------------------- | 

You think you're winning when your winning to lose

E | -5-5--------------3-3-3-3-/4-4-4-4- | 
A | -7-7----3-3—7-7---5-5-5-5-/6-6-6-6- | 
D | -7-7----5-5—5-5---5-5-5-5-/6-6-6-6- | 
G | ---------5-5—5-5------------------- | 
B | ----------------------------------- | 
e | ----------------------------------- | 

You're speakin' my language baby
You're speakin' my language baby
You're speakin' my language baby

E | -5-5--------------3-3-3-3------- | 
A | -7-7----3-3—7-7---5-5-5-5------- | 
D | -7-7----5-5—5-5---5-5-5-5------- |   repeat4x's
G | --------5-5—5-5----------------- | 
B | -------------------------------- | 
e | -------------------------------- | 

e | -0--
A-2--
D | -2-- reapeat 13x's
G | ----
E | ----
e | ----

I don't think you heard me...
I know you think you know me better than that
I beat your dog 'cause he hit on my cat
I wipe my face off and give your kisses back

Keep your trigger loaded while you're....

E | -5-
A | -7-
D | -7-
G | --
B | --
e | --

rockin' and rollin' all night

E | -5-
A | -7-
D | -7-
G | --
B | --
e | --

Solo starts here

You're speakin' my language baby
You're speakin' my language baby
You're speakin' my language baby
You're speakin' my language baby
You're speakin' my language baby
You're speakin' my language baby
You're speakin'
You're speakin'
You're speakin'
You're speakin'

E | -5-5--------------3-3-3-3------------------ | 
A | -7-7----3-3—7-7---5-5-5-5------------------ | 
D | -7-7----5-5—5-5---5-5-5-5------  repeat 12- | x's
G | --------5-5—5-5---------------------------- | 
B | ------------------------------------------- | 
e | ------------------------------------------- | 


You're speakin' oooohhh oh YEAH!

E | -5-5--------------3-3-3-3-/4-4-4-4- | 
A | -7-7----3-3—7-7---5-5-5-5-/6-6-6-6- | 
D | -7-7----5-5—5-5---5-5-5-5-/6-6-6-6- | 
G | ---------5-5—5-5------------------- | 
B | ----------------------------------- | 
e | ----------------------------------- | 

END

E | -5-
A | -7-
D | -7-
G | --
B | --
e | -- 		   
AcordesyTabs.com © 2008 Acordes y Tablaturas para guitarra. Tabs and Chords for guitar. Aviso Legal - Contacto
El uso de este sitio está sujeto a la aceptación de los términos y condiciones (21 usuarios online)