tablaturas, partituras y acordes para guitarra
Busca por banda/artista:
 
y/o título de la canción:
A B C D E F G H I J K L M N O P Q R S T U V W X Y Z 0 1 2 3 4 5 6 7 8 9 / Top 100 tabs
Categorías
Usuarios
usuario:
Darse de alta
password:
Artistas más visitados
Publicidad
TOP acordes y tablaturas de Foo fighters


Estás en: Inicio > Letra F > Acordes y tablaturas de Foo fighters > Let it die intro
Let it die intro
de Foo fighters
Puntúa este acorde/tab:      
(0.1/5)
Reportar este acorde/tab
  Añadir a tus favoritos
  Imprimir
-Introdução-

Toque aproximadamente 12 vezes.
e |  | ----8-------------------5----- |  | 
B |  | ------6-------------------3--- |  | 
G |  | --------0---0---0---0-------0- |  |  
D |  | --8-----------7---5---5------- |  |  
A |  | ----------8------------------- |  |  
E |  | ------------------------------ |  | 

-Refrão-
Toque 2 vezes.
e |  | ------8--------------------------------------------------- |  | 
B |  | --------6---------------------------6---6---6---6---3----- |  | 
G |  | ----------0---0---0---0---4---5-5/8---8-------7---5---5-4- |  | 
D |  | ----8-----------7---5---5---5-------------8--------------- |  | 
A |  | ------------8--------------------------------------------- |  | 
E |  | ---------------------------------------------------------- |  | 

 -Introdução- x12
   -Refrão-   x2

Imediatamente depois do refrão,toque:
e |  | ------------------------------------------ |  | 
B |  | ------------------------------------------ |  | 
G |  | ------------------------------------------ |  |  
D |  | ---5-5-5---------------5------------------ |  |  
A |  | ---5-5-5---------------5------------------ |  |  
E |  | ---3-3-3-3-3-3-3-3-3-3-3-3-3-3-3-3-3-3-3-- |  | 

e |  | ----------------------------------- |  | 
B |  | ----------------------------------- |  | 
G |  | ----------------------------------- |  |  
D |  | ----------------------------5-5-5-- |  |  
A |  | ----------------------------5-5-5-- |  |  
E |  | --3-3-3-3-3-3-3-3-3-3-3-3-3-3-3-3-- |  | 

e |  | ----------------------------------- |  | 
B |  | ----------------------------------- |  | 
G |  | ----------------------------------- |  |  
D |  | --------------------------------5-- |  |  
A |  | --------------------------------5-- |  |  
E |  | --3-3-3-3-3-3-3-3-3-3-3-3-3-3-3-3-- |  | 


e |  | ------------------------- |  | 
B |  | ------------------------- |  | 
G |  | ------------------------- |  |  
D |  | ------------------------- |  |  
A |  | ------------------------- |  |  
E |  | --3-3-3-3-3-3-3-3-3-3-3-- |  | 

Então toque o Refrão x4.

-Pós Refrão-
Toque desse jeito...
e |  | ----8------------------------------------ |  | 
B |  | ------6---------------------------------- |  | 
G |  | --------0---0---0------------------------ |  |  
D |  | --8-----------7--------------12-X-12-X--- |  |  
A |  | ----------8--------10-10-10-------------- |  |  
E |  | ----------------------------------------- |  | 

Depois prossiga x4.
e |  | --------------------------------------------------- |  | 
B |  | --------------------------------------------------- |  | 
G |  | --------------------------------------------------- |  |  
D |  | -13-13-13-13---8-12-10-10-10-12-(b9)----8-8-8-----7-- |  |  
A |  | --------------------------------------------8-X---- |  |  
E |  | --------------------------------------------------- |  | 

-Último Refrão-
Toque 4 Vezes.
e |  | ------------------------------------ |  | 
B |  | ------------------------------------ |  | 
G |  | --8-------10-------5--------7------- |  |  
D |  | --8-------10-------5--------7------- |  |  
A |  | --6--x8---8---x8---3---x8---5---x8-- |  |  
E |  | --6-------8--------3--------5------- |  |  

Depois toque -Pós-Refrão- Mais 2 vezes 		   
AcordesyTabs.com © 2008 Acordes y Tablaturas para guitarra. Tabs and Chords for guitar. Aviso Legal - Contacto
El uso de este sitio está sujeto a la aceptación de los términos y condiciones (76 usuarios online)