tablaturas, partituras y acordes para guitarra
Busca por banda/artista:
 
y/o título de la canción:
A B C D E F G H I J K L M N O P Q R S T U V W X Y Z 0 1 2 3 4 5 6 7 8 9 / Top 100 tabs
Categorías
Usuarios
usuario:
Darse de alta
password:
Artistas más visitados
Publicidad
TOP acordes y tablaturas de 3 Doors Down


Kryptonite
de 3 Doors Down
Puntúa este acorde/tab:      
(0.3/5)
Reportar este acorde/tab
  Añadir a tus favoritos
  Imprimir
3 Doors Down
Kryptonite
The Better Life

Intro
Guitar 1 (electric)
E ---------------------------------------------------
B ------3------------------------0-------3-----------
G ----4-----4---0--------0-----2-------4-----4---0---
D ---4--------4--------0-----2-------4---------4-----
A -2-----------------2-----0-------2-----------------
E -----------------3---------------------------------

E -----------------
B ---------------0-
G -------0-----2---
D -----0-----2-----
A ---2-----0-------
E -3---------------

Guitar 2 (acoustic)
E --------------------3--------0-----------------------
B -3------------------3--------2----------3------------
G -4------------------0--------2----------4------------
D -4------------------0--------2----------4------------
A -2------------------2--------0----------2------------
E --------------------3--------------------------------

E -3-------0
B -3-------2
G -0-------2
D -0-------2
A -2-------0
E -3--------

Verse 
Well, I took a walk around the world to ease my troubled
mind/ I left my body lying somewhere in the sands of 
time/ But I watched the world float to the dark side of
the moon/ I feel there's nothing I can do....yeah....

Fill 1
Guitar 1
E ---------------------0------
B ----------0-------------0---
G -------0-------------------0
D ----2---------0-------------
A -3--------------------------
E - --------------------------

Interlude
E --------------------------------------------------2--
B -----3------2-------3----------3---------2----------2
G -4------------------------2--------------------2-----
D -----------------------------------------------------
A -----------------------------------------------------
E -----------------------------------------------------

E -2-----2--2--2------2-------2--2--2------3-----------
B -3-----3--3--3------3-------3--3--3------3-----------
G -4-----4--4--4------4-------4--4--4------0-----------
D -4-----4--4--4------4-------4--4--4------0-----------
A -2-----2--2--2------2-------2--2--2------2-----------
E -----------------------------------------3-----------

E -3--3--3------0-------0--0--0
B -3--3--3------2-------2--2--2
G -0--0--0------2-------2--2--2
D -0--0--0------2-------2--2--2
A -2--2--2------0-------0--0--0
E -3--3--3---------------------

E -----------------------------------------------------
B -----------------------------------------------------
G -----------------------------------------------------
D -9---------------------------------------------------
A -9---------------------------------------------------
E -7---------------------------------------------------


E ------2------------------------5------------3-------2
B ------------------2--------3-------------------------
G -4---------------------------------------------------
D -----------------------------------------------------
A -----------------------------------------------------
E -----------------------------------------------------

E ------0------2
B -2------------
G --------------
D --------------
A --------------
E --------------




E -----
B -----
G -----
D -(9)-
A -(9)-
E -(7)-


Verse
2: I watched the world float to the dark side of the 
moon/ After all I knew it had to be something to do with
you/ I really don't mind what happens now and then/ As
long as you'll be my friend in the end
3: You called me strong, you called me weak, but still
your secrets I will keep/ you took for granted all the 
times I never let you down/ You stumbled in and bumped
your head if not for me then you'd be dead/ I picked you
up, put you back on solid ground

Chorus

Well, if I go crazy, then will you still call me Super-
man? If I'm alive and well, will you be there holding 
my hand? I'll keep you by my side with my superhuman
might. Kryptonite................

E ------------------------------------------------
B ------------------------------------------------
G ------------------------------------------------
D -9----------9----------9------5----------5-----
A -9----------9----------9------5----------5-----
E -7----7--7--7----7--7--7------3----3--3--3----3

E ------------------------------------------------
B ------------------------------------------------
G ------------------------------------------------
D ----7----------7--------------------------------
A ----7----------7-------------------------------- 
E -3--5----5--5--5----5--5------------------------


       9       9
Repeat 9       9
       7.......7

E ------------------------------------------------
B ------------------------------------------------
G ------------------------------------------------
D -2----------2-----------------------------------
A -2----------2-------------5--4---0--------------
E -0----0--0--0----0--0--2------------------------

       9
Repeat 9
       7..............5    5



       9         9
Repeat 9         9  three times, then:
       7   7  7  7


E ------------------------------------------------
B ------------------------------------------------
G ------------------------------------------------
D -9--9--9---2------------------------------------
A -9--9--9---2--last-power-chord-times-8----------
E -7--7--7---0------------------------------------

E ---
B ---
G ---
D -4-
A -4- last power chord times 8
E -2-

Instrumental that we all actually remember
E ----------------------------------------------------
B ----------------------------------------------------
G ----------------------------------------------------
D ----------------------------------------------------
A -------4--5--------4-------5--47----5--4----5--4---
E -7-------------------------------------------------5

times 2

There's a fair amount more, but that's all you really 
hear guitar-wise in the song, so I'm not gonna bother.
For the whole freakin' thing, buy June 2000's GuitarOne
magazine - the one with Angus and Malcolm from AC/DC on
it. It's also got the real way to play Sleep Now in the
Fire from RATM in it, too. Thanks. 

Feel free to email me, knightofni_shrubbery@hotmail.com
		   
AcordesyTabs.com © 2008 Acordes y Tablaturas para guitarra. Tabs and Chords for guitar. Aviso Legal - Contacto
El uso de este sitio está sujeto a la aceptación de los términos y condiciones (28 usuarios online)