tablaturas, partituras y acordes para guitarra
Busca por banda/artista:
 
y/o título de la canción:
A B C D E F G H I J K L M N O P Q R S T U V W X Y Z 0 1 2 3 4 5 6 7 8 9 / Top 100 tabs
Categorías
Usuarios
usuario:
Darse de alta
password:
Artistas más visitados
Publicidad
TOP acordes y tablaturas de Rush


Apollo
de Rush
Puntúa este acorde/tab:      
(0.3/5)
Reportar este acorde/tab
  Añadir a tus favoritos
  Imprimir
e e e e e e     q q e e e   q q e e e   q q e e e   Q e e e e   q q e e e  
+---------------+-------------+-----------+-----------+-----------+-----------+
 | 3:------------- | 7:----------- | ----------- | ---------5- | -4-4-2----- | ----------- | 
 | 4:-5-4-2------- | 8:----------- | ----------- | ---2-3-5--- | -------5-5- | ---2-3-3-5- | 
+---------5-3-2-+---3-3-3-3-2-+-2-2-2-0-2-+-3---------+-----------+-3---------+

  q q e e e   s s s s e e e e e   q e e e e e   q q e e e   q q e e e  
+-----------+-------------------+-------------+-----------+-----------+
 | ----------- | ---------------5--- | -4-5-4---2-4- | ----------- | ----------- | 
 | ----------- | -----2-3-5---5---5- | -------5----- | ---2-3-3-5- | ----------- | 
+-2-2-2-0-2-+-3-5-------3-------+-------------+-3---------+-2-2-2-0-2-+

    e+h e s s e   e+h q e   Q q q e   q^q^q^q s E   e+h e e e   e+h e e e  
+---------------+---------+---------+-------------+-----------+-----------+
 | 4:-----------5- | -4---5--- | -2-4-2--- | ------------- | ----------- | ----------- | 
 | 4:-----2-3-5--- | -------5- | -------5- | -4-4-4-2-2-4- | -----2-3-5- | -----2-3-5- | 
+---3-----------+---------+---------+-------------+-3---------+-2---------+

  Q q e e e   q^q^q^q^q^q^    q q e s s e   e e e e e e e   e e e s s e e e  
+-----------+-------------+---------------+---------------+-----------3---3-+
 | ----------- | ------------- | 7:-------3-3-5- | --------------- | ---0-1-3-3---3--- | 
 | -----2-3-5- | ------------- | 8:-1-1-1------- | --------------- | -1--------------- | 
+-3-3-------+-2-2-2-2-2-2-+---------------+-5-3-0-3-5-3-0-+-----------------+

  q s s s s e e e   q q E s e   e e e e e e e     e+h e e e   e+h e e e  
+-2-2-2-2-2-------+-----------+---------------+-------------+-----------+
 | -----------5-3--- | -----1-1-3- | ---R---R------- | 4:----------- | ----------- | 
 | ---------------5- | -1-5------- | --------------- | 4:-----5-6-8- | -----5-6-6- | 
+-----------------+-----------+-5---5---5-3-5-+---6---------+-5---------+

  e+h e e e   q^q^q^s e s e e   e+h e e e   e+h e e e   Q q e e e   w     h+Q  
+-----------+-----------------+-----------+-----------+-----------+---+-------+
 | ----------- | ----------------- | ----------- | ----------- | ----------- | --- | 7:----- | 
 | -----5-6-8- | ----------------- | -----5-6-8- | -----5-6-8- | -----5-6-8- | --- | 8:----- | 
+-6---------+-5-5-5-3-3-3-3-5-+-6---------+-5---------+-6-6-------+-5-+---2---+

    H q     h+Q     H e e     h+Q     H q     h+Q   q q q e   q q e e e  
+-------+-------+---------+-------+-------+-------+---------+-----------+
 | 4:----- | 7:----- | 4:------- | 7:----- | 4:----- | 7:----- | --------- | ---------R- | 
 | 4:----- | 8:----- | 4:------- | 8:----- | 4:----- | 8:----- | --------- | ----------- | 
+---2-2-+---2---+---2-2-4-+---5---+---5-5-+---5---+-5-5-5-2-+-2-2-2-2---+

    +e+h e     +e e q q e e   +q q q e e   +e e q E s e e   +e e e e e e q  
+----------+----------------+------------+----------------+----------------+
 | 3:-------- | 4:------7-6----- | ----7-6----- | ------7-6-6----- | ----7-6-6-7-(b9)R- | 
 | 4:-------- | 4:------------7- | --------7-5- | ----5-------7-5- | ---------------- | 
+--------0-+------0-----7---+------------+----------------+----------------+

  +q q q e e   +e e e e s s e s s e   e e e e e e e e   e e e e e e e e  
+------------+----------------------+-----------------+-----------------+
 | ----7-6----- | ------7-6-7-7-6-6-4--- | ----------------- | ----------------- | 
 | --------7-4- | ----4---------------7- | ---------2-2-2-2- | -4-4-2---5-4-2--- | 
+------------+----------------------+-5-5-5-5---------+-------5-------0-+

  +e e q E s e e   +e e e s s e e e e   +e e q E s e e   e e e e e e e e  
+----------------+--------------------+----------------+-----------------+
 | ------7-6-6-(b9)-- | ------7-7-7-6-7-7--- | ------7-6-6----- | -----7-6-6-7-(b9)R- | 
 | --------------7- | ----7-------------5- | ----5-------7-5- | -5-5------------- | 
+----0-----------+--------------------+----------------+-----------------+

  +q q q e e   +e e q q q   e e e e e e e e   e e e e e e e e   +e e q E s e e  
+------------+------------+-----------------+-----------------+----------------+
 | ----7-6----- | ------7-6--- | -----R-------R--- | ----------------- | ------7-6-6-(b9)-- | 
 | --------7-4- | ----4-----7- | ---------2-2---2- | -4-4-2---5-4-2--- | --------------7- | 
+------------+------------+-5-5---5---------+-------5-------0-+----0-----------+

  e e e e E s e e   +e e q E s e e   e e e e s s e e e   +q q q e e  
+-----------------+----------------+---------6-6-------+------------+
 | -----7-7-6-6----- | ------7-6-6----- | -----7-6-----7-(b9)R- | ----7-6----- | 
 | -7-7---------7-5- | ----5-------7-5- | -5-5--------------- | --------7-4- | 
+-----------------+----------------+-------------------+------------+

  +e e q q q   e e e e e e e e   e e e e e e e e   +e e e e e e e e  
+------------+-----------------+-----------------+------------------+
 | ------7-6--- | -R-----R-----R--- | ---R------------- | ------------------ | 
 | ----4-----7- | ---------2-2---4- | -4---5-4-5-4---2- | ----2---2-4-4-4-4- | 
+------------+---5-5-----------+-------------5---+------2-----------+

  e e e e e e e e   +e e s s e e e e e   +e e s s e s s e e e  
+-----------------+----4-3-4---3-4-6---+----4-3-4---3-3---6---+
 | -1-1-1-1-2-1----- | ----------4-------4- | ----------4-----4---4- | 
 | -------------2--- | -------------------- | ---------------------- | 
+---------------2-+--------------------+----------------------+

  +e e s s e s s s s e e   +e e s s e e s s e e   +e e s s e e e e e  
+----4-3-3---3-3-4-4-6---+----4-3-3---3-----6---+----4-3-3---3-4-6---+
 | ----------4-----------4- | ----------4---4-4---4- | ----------4-------4- | 
 | ------------------------ | ---------------------- | -------------------- | 
+------------------------+----------------------+--------------------+

  +e e s s e s s e e e   e e e e e e e e   +e e s s e s s e e e  
+----4-3-4---3-3---6---+---4-3---3-4-6---+----4-3-3---3-3-------+
 | ----------4---------4- | -4-----4-------4- | ----------4-----4---7- | 
 | ----------------4----- | ----------------- | ------------------5--- | 
+----------------------+-----------------+----------------------+

  +e e s s e s s e e e   +e e s s e e e e e   +e e s s e e e e  e  
+----7-6-6---6-6-7-(b9)--+----7-6-6---6-------+----7-6-6---6-7-(b9)11-+
 | ----------7---------7- | ----------7---7---7- | ----------7---------- | 
 | ---------------------- | ----------------7--- | --------------------- | 
+----------------------+--------------------+---------------------+

  +e e e e e e e e   +e e s s e e e e e   e e s s e s s e e e  
+----(b9)7-6-4-------+----4-3-3---3-4-6---+---4-3-3---3-3-------+
 | ------------7-6-4- | ----------4-------4- | -4-------4-----4---4- | 
 | ------------------ | -------------------- | -----------------4--- | 
+------------------+--------------------+---------------------+

  +e e s s e e e e e   e e e e e e e e   +w   +h q e e   +w     +h q e  
+----4-3-3---3-4-6---+---4-3---3-------+----+----------+----+----------+
 | ----------4-------4- | -4-----4---4----- | ---- | ---------- | ---- | 7:-------- | 
 | -------------------- | -------------4--- | ---- | ---------- | ---- | 8:-------- | 
+--------------------+---------------1-+----+----1-1-1-+----+------1-1-+ 		   
AcordesyTabs.com © 2008 Acordes y Tablaturas para guitarra. Tabs and Chords for guitar. Aviso Legal - Contacto
El uso de este sitio está sujeto a la aceptación de los términos y condiciones (24 usuarios online)