tablaturas, partituras y acordes para guitarra
Busca por banda/artista:
 
y/o título de la canción:
A B C D E F G H I J K L M N O P Q R S T U V W X Y Z 0 1 2 3 4 5 6 7 8 9 / Top 100 tabs
Categorías
Usuarios
usuario:
Darse de alta
password:
Artistas más visitados
Publicidad
TOP acordes y tablaturas de Disturbed


I'm alive
de Disturbed
Puntúa este acorde/tab:      
(0.4/5)
Reportar este acorde/tab
  Añadir a tus favoritos
  Imprimir
This song is played with the max Tone and a HEAVY distortion 
 
Intro: 
 
 | ------------------------------------------------------------ |  
 | ------------------------------------------------------------ |  
 | ------------------------------------------------------------ |  
 | -2--2-2-4--2-2-4--2-2-4h5--2--2-2-4--2-2-4--2-2-4h5-4h5-4h5- |  
 | -2--2-2-4--2-2-4--2-2-4h5--2--2-2-4--2-2-4--2-2-4h5-4h5-4h5- |  
 | -2--2-2-4--2-2-4--2-2-4h5--2--2-2-4--2-2-4--2-2-4h5-4h5-4h5- |  
PM  . . .  . . .  . .         . . .  . . .  . . 
 
 | -------------------------- |  
 | -------------------------- |  
 | -------------------------- |  
 | -2--2-2-4--2-2-4--2-2-4h5- |  
 | -2--2-2-4--2-2-4--2-2-4h5- |  
 | -2--2-2-4--2-2-4--2-2-4h5- |  
PM  . . .  . . .  . . 
 
Fill: 
 
 | ----------- |  
 | ----------- |  
 | ----------- |  
 | -1---5-4-2- |  X2 
 | -1---5-4-2- |  
 | -1---5-4-2- |  
 
1st Verse(1st Part): 
 
 | ---------------------------------- |  
 | ---------------------------------- |  
 | ---------------------------------- |  
 | ---------------------------------- |  
 | ---------------------------------- |  
 | -1-1--1--1-2--2-2-2-2----6--4--6-- |  
PM. .  .  . .  . . . .    .  .  . 
 
 | ---------------------------------- |  
 | ---------------------------------- |  
 | ---------------------------------- |  
 | ---------------------------------- |  
 | ---------------------------------- |  
 | -1-1--1--1-2--2-2-2-2----6--4--3-- |  
PM. .  .  . .  . . . .    .  .  . 
 
 | ---------------------------------- |  
 | ---------------------------------- |  
 | ---------------------------------- |  
 | ---------------------------------- |  
 | ---------------------------------- |  
 | -1-1--1--1-2--2-2-2-2----6--4--6-- |  
PM. .  .  . .  . . . .    .  .  . 
 
Play Fill 
 
1st Verse(2nd Part) 
 
 | ----------------------- |  
 | ----------------------- |  
 | ----------------------- |  
 | -1-1--0-0--3-3-6--4--6- |  
 | -1-1--0-0--3-3-6--4--6- |  
 | -1-1--0-0--3-3-6--4--6- |  
PM . .  . .  . .  
 
 | ----------------------- |  
 | ----------------------- |  
 | ----------------------- |  
 | -1-1--0-0--3-3-6--4--3- |  
 | -1-1--0-0--3-3-6--4--3- |  
 | -1-1--0-0--3-3-6--4--3- |  
PM . .  . .  . .  
 
 | ----------------------- |  
 | ----------------------- |  
 | ----------------------- |  
 | -1-1--0-0--3-3-6--4--6- |  
 | -1-1--0-0--3-3-6--4--6- |  
 | -1-1--0-0--3-3-6--4--6- |  
PM . .  . .  . .  
 
Play Fill 
 
Pre-Chorus: 
 
 | ----------------------------------------------------------- |  
 | ----------------------------------------------------------- |  
 | ----------------------------------------------------------- |  X5 
 | -8--8-8-8-8-8-10--10-10-10-10-10-6--6-6-6-6-6-5--5-5-5-5-5- |  
 | -8--8-8-8-8-8-10--10-10-10-10-10-6--6-6-6-6-6-5--5-5-5-5-5- |  
 | -8--8-8-8-8-8-10--10-10-10-10-10-6--6-6-6-6-6-5--5-5-5-5-5- |  
 
 | ---------------------------------------------- |  
 | ---------------------------------------------- |  
 | ---------------------------------------------- |  
 | -8--8-8-8-8-8-10--10-10-10-10-10-6--6-6-6-6-6- |  
 | -8--8-8-8-8-8-10--10-10-10-10-10-6--6-6-6-6-6- |  
 | -8--8-8-8-8-8-10--10-10-10-10-10-6--6-6-6-6-6- |  
 
 | ---------- |  
 | ---------- |  
 | ---------- |  
 | ---------- |  X3 
 | ---------- |  
 | -1--1-1-1- |  
PM .  . . . 
 
Chorus(X2): 
 
 | ---------------------------------- |  
 | ---------------------------------- |  
 | ---------------------------------- |   
 | -4---1--2-x-x-x-x--4---1--2--1--3- |  
 | -4---1--2-x-x-x-x--4---1--2--1--3- |  
 | -4---1--2-x-x-x-x--4---1--2--1--3- |  
 
2nd Verse(1st Part): 
 
 | ----------------------------- |  
 | ----------------------------- |  
 | ----------------------------- |  
 | ----------------------------- |  
 | -2-2-1h2p1-2-2--3-3--6--4--6- |  
PM . .       .  . . . 
 
 | ----------------------------- |  
 | ----------------------------- |  
 | ----------------------------- |  
 | ----------------------------- |  
 | -2-2-1h2p1-2-2--3-3--6--4--3- |  
PM . .       .  . . . 
 
 | ----------------------------- |  
 | ----------------------------- |  
 | ----------------------------- |  
 | ----------------------------- |  
 | -2-2-1h2p1-2-2--3-3--6--4--6- |  
PM . .       .  . . . 
 
Play Fill 
 
2nd Verse(2nd Part): This part is the same as the 2nd Part Of 1st Verse 
 
 | ----------------------- |  
 | ----------------------- |  
 | ----------------------- |  
 | -1-1--0-0--3-3-6--4--6- |  
 | -1-1--0-0--3-3-6--4--6- |  
 | -1-1--0-0--3-3-6--4--6- |  
PM . .  . .  . .  
 
 | ----------------------- |  
 | ----------------------- |  
 | ----------------------- |  
 | -1-1--0-0--3-3-6--4--3- |  
 | -1-1--0-0--3-3-6--4--3- |  
 | -1-1--0-0--3-3-6--4--3- |  
PM . .  . .  . .  
 
 | ----------------------- |  
 | ----------------------- |  
 | ----------------------- |  
 | -1-1--0-0--3-3-6--4--6- |  
 | -1-1--0-0--3-3-6--4--6- |  
 | -1-1--0-0--3-3-6--4--6- |  
PM . .  . .  . .  
 
Play Fill 
 
Play Pre-Chorus 
 
Pre-Breakdown: 
 
 | --- |  
 | --- |  
 | --- |  
 | --- |  (This is played With a Delay Effect and a Amp Rotation Effect
 (only if you have two amps XD)) 
 | --- |  
 | -1- |  
 
Breakdown: 
 
 | -------------------------------------------------------------------- |  
 | -------------------------------------------------------------------- |  
 | -------------------------------------------------------------------- |  
 | --1--4---1--4-4---1--4---1--4-6---1--4---1--4-4---0--3--0-0-0-2-0-0- |  X5 or 6 
 | --1--4---1--4-4---1--4---1--4-6---1--4---1--4-4---0--3--0-0-0-2-0-0- |  
 | --1--4---1--4-4---1--4---1--4-6---1--4---1--4-4---1--3--0-0-0-2-0-0- |  
PM                                                       . . . . . . 
 
Play Intro 
 
Play Fill 
 
In this part you have to wait until the song gets heavy then you start playing the Pre-Chorus 
 
Play This: 
 
 | ---------- |  
 | ---------- |  
 | ---------- |  
 | ---------- |  X3 
 | ---------- |  
 | -1--1-1-1- |  
PM .  . . . 
 
 | --------------- |  
 | --------------- |  
 | --------------- |  
 | -3-2-1-0-1-2-3- |  Play This Fast (Not So sure about this part) 
 | -3-2-1-0-1-2-3- |  
 | -3-2-1-0-1-2-3- |  
 
Play Chorus(X4) 		   
AcordesyTabs.com © 2008 Acordes y Tablaturas para guitarra. Tabs and Chords for guitar. Aviso Legal - Contacto
El uso de este sitio está sujeto a la aceptación de los términos y condiciones (28 usuarios online)