tablaturas, partituras y acordes para guitarra
Busca por banda/artista:
 
y/o título de la canción:
A B C D E F G H I J K L M N O P Q R S T U V W X Y Z 0 1 2 3 4 5 6 7 8 9 / Top 100 tabs
Categorías
Usuarios
usuario:
Darse de alta
password:
Artistas más visitados
Publicidad
TOP acordes y tablaturas de Offspring


Estás en: Inicio > Letra O > Acordes y tablaturas de Offspring > Feelings Intro
Feelings Intro
de Offspring
Puntúa este acorde/tab:      
(0.4/5)
Reportar este acorde/tab
  Añadir a tus favoritos
  Imprimir
g----5----------5555----5-----------5555----5-------------5555
d----7--777777777777----6--6666666666666----5--555555555555555
a-------------------------------------------------------------
e-------------------------------------------------------------


g--7------------7777----7---------------7777----7--------------7777
d--44444444444444444----3--33333333333333333----5--5555555555555555
a------------------------------------------------------------------
e------------------------------------------------------------------

g--2--------------99999
d--2--------------99999      4 times Approx.
a--0--------------99999
e-------------0---99999




many need to listen to song
		   
AcordesyTabs.com © 2008 Acordes y Tablaturas para guitarra. Tabs and Chords for guitar. Aviso Legal - Contacto
El uso de este sitio está sujeto a la aceptación de los términos y condiciones (10 usuarios online)