tablaturas, partituras y acordes para guitarra
Busca por banda/artista:
 
y/o título de la canción:
A B C D E F G H I J K L M N O P Q R S T U V W X Y Z 0 1 2 3 4 5 6 7 8 9 / Top 100 tabs
Categorías
Usuarios
usuario:
Darse de alta
password:
Artistas más visitados
Publicidad
TOP acordes y tablaturas de My chemical romance


Astro zombies
de My chemical romance
Puntúa este acorde/tab:      
(0.4/5)
Reportar este acorde/tab
  Añadir a tus favoritos
  Imprimir
Tuning: Standard


Riff A
E | --------------------------------------------- | 
B | --------------------------------------------- | 
G | --------------------------------------------- | 
D | -10-10(b9)(b9)9(b9)-7--5-55--3-33-33--5--55-55---- | 
A | -10-10(b9)(b9)9(b9)-7--5-55--3-33-33--5--55-55---- | 
E | - 8- 8/7-7-77--5--3-33--1-11-11--3--33-33---- | 


Riff B
E | --------------------------------------- | 
B | --------------------------------------- | 
G | -------------------10101010------------ | 
D | -1010101010101010--10101010--3----5--6- | 
A | -1010101010101010---8-8-8-8--3----5--6- | 
E | --8-8-8-8-8-8-8-8------------1----3--4- | 

Riff C
E | --------------------------------------------------------- | 
B | --------------------------------------------------------- | 
G | ---------------------------77777777-10101010-12121212---- | 
D | -1010101010101010-77777777-77777777-10101010-12121212---- | 
A | -1010101010101010-77777777-55555555--8-8-8-8-10101010---- | 
E | --8-8-8-8-8-8-8-8-55555555------------------------------- | 


Riff D
E | --------------------------------------------- | 
B | --------------------------------------------- | 
G | ---------------------------77777777---------- | 
D | -1010101010101010-77777777-77777777-55555555- | 
A | -1010101010101010-77777777-55555555-55555555- | 
E | --8-8-8-8-8-8-8-8-55555555----------33333333- | 


Solo:  - Thanks to aperfectshot176.
e | --------------------------------------------------------- | 
B | -^13^13-13-13-^13^13-12-(b9)------------------------------- | 
G | --------------------------12-10--10-10-10-10-12-12-12-12- | 
D | --------------------------------------------------------- | 
A | --------------------------------------------------------- | 
E | --------------------------------------------------------- | 

e | ------------------------------------------------------------- | 
B | -^13^13-13-13-^13^13-12-(b9)--------------------------------13- | 
G | --------------------------12-10--10-10-10-10-12-12-12-12----- | 
D | ------------------------------------------------------------- | 
A | ------------------------------------------------------------- | 
E | ------------------------------------------------------------- | 


Order:
Riff A     2x
Riff B     2x
Riff C     2x
Riff D     2x
Riff B     2x
Riff C     2x
Riff D     2x
Riff B     4x
Riff A     2x

 |  /  slide up
 |    slide down
 |  h  hammer-on
 |  p  pull-off
 |  ~  vibrato
 |  +  harmonic
 |  x  Mute note 		   
AcordesyTabs.com © 2008 Acordes y Tablaturas para guitarra. Tabs and Chords for guitar. Aviso Legal - Contacto
El uso de este sitio está sujeto a la aceptación de los términos y condiciones (43 usuarios online)