tablaturas, partituras y acordes para guitarra
Busca por banda/artista:
 
y/o título de la canción:
A B C D E F G H I J K L M N O P Q R S T U V W X Y Z 0 1 2 3 4 5 6 7 8 9 / Top 100 tabs
Categorías
Usuarios
usuario:
Darse de alta
password:
Artistas más visitados
Publicidad
TOP acordes y tablaturas de Kiss
:: Beth - Kiss


Estás en: Inicio > Letra K > Acordes y tablaturas de Kiss > Let me go rock 'n roll
Let me go rock 'n roll
de Kiss
Puntúa este acorde/tab:      
(0.8/5)
Reportar este acorde/tab
  Añadir a tus favoritos
  Imprimir
Rock 'n' roll

Gb | --1(b9)------------------------------------ | 
Db | ----------------------------------------- | 
Ab | ----------------------------------------- | 
Eb | ----------------------------------------- | 
 
Gb | --2-------------------------------------- | 
Db | --------------2--4--2-------------------- | 
Ab | -----0--3--4----------------------------- | 
Eb | ----------------------------------------- | 

Gb | --2-------------------------------------- | 
Db | --------------2--4--2-------------------- | 
Ab | -----0--3--4----------------------------- | 
Eb | ----------------------------------------- | 
Baby gets tired, everybody knows
Gb | --2-------------------------------------- | 
Db | --------------2-------------------------- | 
Ab | -----0--3--4-----0--3--4----------------- | 
Eb | ----------------------------------------- | 
Your mother tells you, baby has to show
Yeah, yeah
Gb | ----------------------7------5----------- | 
Db | ----------------------------------------- | 
Ab | --5------5------------------------------- | 
Eb | ----------------------------------------- | 
Let me go
Gb | --2-------------------------------------- | 
Db | --------------2--4--2-------------------- | 
Ab | -----0--3--4----------------------------- | 
Eb | ----------------------------------------- | 

Gb | ----------------------------------------- | 
Db | --5---------------3------5-------7------- | 
Ab | ---------5------------------------------- | 
Eb | ----------------------------------------- | 

'Cause baby's got the feelin'
Baby wants a show
Baby, won't you tell me
Baby, rock 'n' roll
Yeah, yeah

Gb | --1(b9)---14------------------------------ | 
Db | --------------12------------------------ | 
Ab | --------------------12------------------ | 
Eb | ----------------------------------------- | 


Gb | --2-------------------------------------- | 
Db | --------------2--4--2-------------------- | 
Ab | -----0--3--4----------------------------- | 
Eb | ----------------------------------------- | 
I never knew I needed a baby like you
Gb | --2-------------------------------------- | 
Db | --------------2-------------------------- | 
Ab | -----0--3--4-----0--3--4----------------- | 
Eb | ----------------------------------------- | 
I never knew I needed you like I do
Yeah, yeah
Gb | ----------------------7------5----------- | 
Db | ----------------------------------------- | 
Ab | --5------5------------------------------- | 
Eb | ----------------------------------------- | 
Let me go
Gb | --2-------------------------------------- | 
Db | --------------2--4--2-------------------- | 
Ab | -----0--3--4----------------------------- | 
Eb | ----------------------------------------- | 

Gb | ----------------------------------------- | 
Db | --5---------------3------5-------7------- | 
Ab | ---------5------------------------------- | 
Eb | ----------------------------------------- | 
'Cause baby's got the feelin'
Baby wants a show
Baby, won't you tell me
Baby, rock 'n' roll
Yeah, yeah

Gb | ----14---------------------------------- | 
Db | ------------12-------------------------- | 
Ab | ----------------------------------------- | 
Eb | ----------------------------------------- | 


Gb | --2-------------------------------------- | 
Db | --------------2--4--2-------------------- | 
Ab | -----0--3--4----------------------------- | 
Eb | ----------------------------------------- |  (7x)

Gb | --14---4----5----6---------------------- | 
Db | ----------------------------------------- | 
Ab | ----------------------------------------- | 
Eb | ----------------------------------------- | 

Gb | ----------------------7------5----------- | 
Db | ----------------------------------------- | 
Ab | --5------5------------------------------- | 
Eb | ----------------------------------------- | 

Gb | --2-------------------------------------- | 
Db | --------------2--4--2-------------------- | 
Ab | -----0--3--4----------------------------- | 
Eb | ----------------------------------------- | 

Gb | ----------------------------------------- | 
Db | --5---------------3------5-------7------- | 
Ab | ---------5------------------------------- | 
Eb | ----------------------------------------- | 


Gb | ----------------------------------------- | 
Db | --12------------------------------------ | 
Ab | ----------------------------------------- | 
Eb | ----------------------------------------- | 



Gb | --2-------------------------------------- | 
Db | --------------2--4--2-------------------- | 
Ab | -----0--3--4----------------------------- | 
Eb | ----------------------------------------- | 
You try so hard to please
You get me hard you know
Gb | --2--2--4----5----6---------------------- | 
Db | ----------------------------------------- | 
Ab | ----------------------------------------- | 
Eb | ----------------------------------------- | 
Baby, won't you squeeze
Let me go
Let me go
Gb | ----------------------7------5----------- | 
Db | ----------------------------------------- | 
Ab | --5------5------------------------------- | 
Eb | ----------------------------------------- | 
Let me go
Gb | --2-------------------------------------- | 
Db | --------------2--4--2-------------------- | 
Ab | -----0--3--4----------------------------- | 
Eb | ----------------------------------------- | 


Gb | ----------------------------------------- | 
Db | --5---------------3------5-------7------- | 
Ab | ---------5------------------------------- | 
Eb | ----------------------------------------- | 
'Cause baby's got the feelin'
Baby wants a show
Baby, won't you tell me
Baby, rock 'n' roll
Yeah, yeah

Gb | ----------------------------------------- | 
Db | ----------------------------------------- | 
Ab | --0--------0----------------------------- | 
Eb | ----------------------------------------- |  (2x) 		   
AcordesyTabs.com © 2008 Acordes y Tablaturas para guitarra. Tabs and Chords for guitar. Aviso Legal - Contacto
El uso de este sitio está sujeto a la aceptación de los términos y condiciones (64 usuarios online)